Oops, an error
Loading. Please wait.

Dont Stop Color On The Walls Bass Tab

version 3
version 3

Whole song

Interactive

8,362 views 13 this week
no commentswrite comment
1 2 3 4 5
excellent!
x 4
add to favorites
launch autoscroll
font size
0
reset
guitar tuner
Tab Pro tools
  • play this tab
  • loop segment
  • change instrument
  • show fretboard
  • metronome
×
Best way to learn
"Dont Stop Color On The Walls"
Autoscroll
slow
fast
+/-
esc
set tempo
stop
Contributor
Difficulty
intermediate
Foster the People - Don't Stop (Colour on the Walls)

Verse 1
G -------------------------------------------------|
D ---------------------9------------5-4-5-7-7------| x3
A -----------------/11---11-----5-5-----------5----|
E -7--7-7--7-7-7-7----------5-5--------------------|


G -----------------------------|
D --------------------9--------| x1
A ----------------/11---11-----|
E -7--7-7--7-7-7-7----------5--|

Chorus 1

G -------------------------------------------------|
D -------------------------------------------------| x1
A ---------------------5---------------------------|
E -3---0-3--0-3--0--7---7--3---0-3--0-3--0-5-5-5---|

G -------------------------------------------------|
D ---------------------9------------5-4-5-7-7------| x1
A -----------------/11---11-----5-5-----------5----|
E -7--7-7--7-7-7-7----------5-5--------------------|

G -----------------------------|
D --------------------9--------| x1
A ----------------/11---11-----|
E -7--7-7--7-7-7-7----------5--|

Verse 2
G -------------------------------------------------|
D ---------------------9------------5-4-5-7-7------| x3
A -----------------/11---11-----5-5-----------5----|
E -7--7-7--7-7-7-7----------5-5--------------------|


G ---------------------------------------|
D --------------------9------------------| x1
A ----------------/11---11---------------|
E -7--7-7--7-7-7-7----------(5)x8--(2)x8-|

Chorus 2

G -------------------------------------------------|
D -------------------------------------------------| x2
A ---------------------5---------------------------|
E -3---0-3--0-3--0--7---7--3---0-3--0-3--0-5-5-5---|

Guitar Solo

G -------------------------------------------------|
D ---------------------9------------5-4-5-7-7------| x3
A -----------------/11---11-----5-5-----------5----|
E -7--7-7--7-7-7-7----------5-5--------------------|

G ----------------------------------------------------------|
D --------------------9-----------------5-5-5-7-7-7-7-7-7---| x1
A ----------------/11---11--------5-5-5---------------------|
E -7--7-7--7-7-7-7----------5-5-5---------------------------|

Outro

G -------------------------------------------------|
D -------------------------------------------------| x1
A -------------------------------------------------|
E -3---0-3---0-3---0-3-(3)x16----------------------|

G -------------------------------------------------|
D -------------------------------------------------| x1
A ---------------------5---------------------------|
E -3---0-3--0-3--0--7---7--3---0-3--0-3--0-5-5-5---|

G -------------------------------------------------|
D -------------------------------------------------|
A -------------------------------------------------|
E -(3)-x16--(5)x8--7~------------------------------|

Live Ending

G -----------------------------------------------------|
D ----------------------17-17-16-16-14-14-12-12-7------|
A -----------------------------------------------------|
E -(3)x16-(5)x8-(3)x16/--------------------------------|
comments
print report bad tab
I want to post or [tab]
guest
You may want to rate the tab now too:
select rating
Please do not post tabs as comments. Select "correction" instead!