Oops, an error
Loading. Please wait.

Helena Beat Bass Tab

version 3
version 3

Whole song

Interactive

6,989 views 12 this week
1 commentread comment
1 2 3 4 5
x 6
add to favorites
launch autoscroll
font size
0
reset
guitar tuner
Autoscroll
slow
fast
+/-
esc
set tempo
stop
Help us to improve Ultimate-Guitar.com Take our survey!
×
Author
Difficulty
Foster The People - Helena Beat



This is the "bass line" (the actual bass is done on synth) that goes through the 
whole song, except the bridge.
G|-----------------------------------8888------|
D|------------------------------6666-----------|
A|-----------66666666-4444-6666----------------|
E|-111111-33-----------------------------------|

G|---------------------------------------------|
D|------------------------------6655-/10101010-|
A|-----------66666666-4444-6666----------------|
E|-111111-33-----------------------------------|

Thanks :)
Suggest correction
comments
print report bad tab
1 comment total.
0 reply
TheJive 30 Oct 21, 2014 08:21 PM

Add the breakdown and it's complete.
G|-------------------------|
D|---3-1------------1---1--|
A|-------3-1--1-0-1---1----|
E|-1-----------------------|

guest
You may want to rate the tab now too:
select rating
Wanna post a correction for this tab? Suggest correction