Oops, an error
Loading. Please wait.

Pumped Up Kicks Tab

version 2
version 2
9,685 views 9 this week
no commentswrite comment
1 2 3 4 5
please rate
add to favorites
launch autoscroll
font size
0
reset
how to read this tab
guitar tuner
Autoscroll
slow
fast
+/-
esc
set tempo
stop
Help us to improve Ultimate-Guitar.com Take our survey!
×
Author
Difficulty
novice
-----------------------------------------------------------------------------
                PUMPED UP KICKS (ACOUSTIC) - FOSTER THE PEOPLE
-----------------------------------------------------------------------------
                           Tabbed by: Tim Andersen
                       Email: TAndersen0796@gmail.com

                    Tuning: Standard w/ Capoe on 7th Fret 

                                    INTRO
          (Part 1) - Second time through, play the parentheses.
            e|----------------------------------------------|
            B|----------------------------------------------|
            G|----------------------------------------------|
            D|----------------------0--0-0(h9p0)------------|   x2
            A|--------------------9--------------9-0--0-0---|
            E|-0--0-0-9-10--10-10-------------------------9-|

        (Part 2) - Second time through, play the parentheses.     
     e|---------------------10-10-10---0--0--0h9--0-------------------|
     B|---------------------10-10-10---10-10-10---10---9-9-9-9-10-12--|
     G|---------------------0--0--0----9--9--9----9----9-9-9-9-9--9---|
     D|(9)--(9)-(9)---------0--0--0----0--0--0----0----9-9-9-9-9--9---|   x2
     A|(9)--(9)-(9)-----0h9-9--9--9-----------------------------------|
     E|-0----0---0-9-10-----10-10-10----------------------------------|

                                 Verses
     Play Part 1 of the intro palm muted w/o the parentheses.

                                 Chorus    
                e|-------------------9-------9---------|
                B|-------------------9-------10------9-|
                G|-------------------0-------9-------9-|
                D|----9--------------0---------------9-|   x2   
                A|----9--------------9-----------------|
                E|----0------10------10----------------|

************************************

| /   slide up
| \   slide down
| h   hammer-on
| p   pull-off
| ~   vibrato
| +   harmonic
| x   Mute note
| b   Bend
| pb  Pre-bend
| br  Bend release
| pbr Pre-bend release
| brb Bend release bend

************************************
Suggest correction new What's this?
You can suggest a correction to this tab. Community and Mods will review your correction and vote to approve or reject it.
comments
We did not receive enough feedback on this tab! Please rate:
print report bad tab
1 2 3 4 5
guest
You may want to rate the tab now too:
select rating
Please do not post tabs as comments. Select "correction" instead!