Oops, an error
Loading. Please wait.

Pumped Up Kicks Bass Tab

version 1
version 1
395,038 views 540 this week
16 commentsread comments
1 2 3 4 5
accurate
x 91
add to favorites
launch autoscroll
font size
0
reset
guitar tuner
Tab Pro tools
  • play this tab
  • loop segment
  • change instrument
  • show fretboard
  • metronome
×
Best way to learn
"Pumped Up Kicks"
Autoscroll
slow
fast
+/-
esc
set tempo
stop
G |----------------5-8-8-8--5---------------------|
D |--------5-6-6-8-------------8-8-8-5-6----------|  
A |--8-8-8-------------------------------8--------|
E |-----------------------------------------------|

G |----------------5-8-8-8-10---------------------|
D |--------5-6-6-8-------------10-8-8-8-5-6-------|
A |--8-8-8----------------------------------8-----|
E |-----------------------------------------------|


Variations of these two lines are played throughout the whole song. 
comments
print report bad tab
16 comments total. Showing first comments. show 1 bad comment
+1 reply
CMJ Gibson wrote on January 29 2012, 01:22 pm

Actually, it like this. And i am 100% correct this is correct. By the way 11 is not eleven, it's really two 1's. Same with other things such as 13(1-3). Enjoy

G-----------------------------------------------
D----------------1-11---------------------------
A-------------13-----3-1-11-3-1-----------------
E-1-11-3-4-44-------------------4---------------

Trust me, it is correct.

0 reply
Filipus wrote on February 7 2012, 03:25 pm

G-----------------------------------------------
D----------------1-11---------------------------
A-------------13-----3-1-11-3-1-----------------
E-1-11-3-4-44-------------------4---------------

Is the correct thing.

I want to post or [tab]
guest
You may want to rate the tab now too:
select rating
Please do not post tabs as comments. Select "correction" instead!