Oops, an error
Loading. Please wait.

Pumped Up Kicks Bass Tab

version 1
version 1

Intro

Whole song

Interactive

23,271 views 12 this week
1 commentread comment
1 2 3 4 5
accurate
x 11
add to favorites
launch autoscroll
font size
0
reset
guitar tuner
Autoscroll
slow
fast
+/-
esc
set tempo
stop
Help us to improve Ultimate-Guitar.com Take our survey!
×
Author
Difficulty
novice
Bass solo in intro and throughout (no capo): 


e|----------------------------------|
b|----------------------------------|
g|-----------------1-1-1------------|
D|---------------3-------3----------|
A|-------------1-----------1-1------|
E|-1-1-1-3-4-4-----------------3-4--|


e|----------------------------------|
b|----------------------------------|
g|-----------------1-1-1h3----------|
D|---------------3--------3---------|
A|-------------1------------1-1-----|
E|-1-1-1-3-4-4------------------3-4-|
Suggest correction
comments
print report bad tab
1 comment total.
0 reply
Jake Bullet 26 wrote on October 20 2011, 08:27 pm

*As played on an electric guitar*

guest
You may want to rate the tab now too:
select rating
Wanna post a correction for this tab? Suggest correction