Oops, an error
Loading. Please wait.

Pumped Up Kicks Tab

version 1
version 1
82,960 views 90 this week
6 commentsread comments
1 2 3 4 5
x 72
add to favorites
launch autoscroll
font size
0
reset
how to read this tab
guitar tuner
Autoscroll
slow
fast
+/-
esc
set tempo
stop
Help us to improve Ultimate-Guitar.com Take our survey!
×
Difficulty
Capo
novice
1st fret
Capo on 1
http://www.youtube.com/watch?v=9aOYXJcG77A
-Marty Schwatz's tabs, not mine.


e|----------------------------------------------------------|
B|----------------------------------------------------------|
G|----------------------------------------------------------|
D|--------------------------0--0--0-------------------------|
A|------------------0-2--2----------2--0--0-2---------------|
E|-0--0-0-2-3--3--3---------------------------2-3-0~--------|



************************************

| ~  Vibrato

************************************
Suggest correction
comments
print report bad tab
6 comments total. Showing first comments.
0 reply
JMP123 10 Apr 04, 2013 08:40 PM

Good but I thought the intro was could be wrong

-1 reply
JMP123 10 Apr 04, 2013 08:40 PM

thought the intro was bass*

+6 reply
jasonlimjq 10 Apr 11, 2014 09:56 AM

e|-----------------------------------------------------|
B|-----------------------------------------------------|
G|-----------------------------------------------------|
D|---------------------0--0--0-------------------------|
A|----------------0-2----------2--0--0-0---------------|
E|-0--0-0-2-3--3-----------------------------2-3-0~----|

this sounds better

guest
You may want to rate the tab now too:
select rating
Wanna post a correction for this tab? Suggest correction