Oops, an error
Loading. Please wait.

Pumped Up Kicks Tab

version 1
version 1
31,562 views 18 this week
no commentswrite comment
1 2 3 4 5
x 4
add to favorites
launch autoscroll
font size
0
reset
how to read this tab
guitar tuner
Autoscroll
slow
fast
+/-
esc
set tempo
stop
Help us to improve Ultimate-Guitar.com Take our survey!
×
Author
Difficulty
novice
#----------------------------------PLEASE NOTE---------------------------------#
#This file is the author's own work and represents their interpretation of the #
#song. You may only use this file for private study, scholarship, or research. #
#------------------------------------------------------------------------------#

-------------------------------------------------------------------------------
     PUMPED UP KICKS (Whistle Solo) - Foster the People
-------------------------------------------------------------------------------
Tabbed by: Jimmy Lynch
Email: jimmy.lynch@live.com.au

Tuning: Standard

Song: Pumped Up Kicks (Whistle Solo)
Artist: Foster the Peopls

Submitted by Jimmy Lynch


e --------------------------------------------|
B --8-----------------------------------------|
G -----10-10--8-8------------8-8-8------------|
D -----------------10-10--8---------10-10--8--|
A --------------------------------------------|
E --------------------------------------------|

e -------------------------|
B -----------------8-------|
G --8-8-8-8--10-10---10-8--|
D -------------------------|
A -------------------------|
E -------------------------|

e --------------------------------------------|
B --8-----------------------------------------|
G -----10-10--8-8------------8-8-8------------|
D -----------------10-10--8---------10-10--8--|
A --------------------------------------------|
E --------------------------------------------|

e -----------------------|
B -----------------8-----|
G --8-8-8-8--10-10---10--|
D -----------------------|
A -----------------------|
E -----------------------|

This song kicks arse and has been continuously cool for so long!
It does join a long line of great tunes with the same Em G D A progression.
Depending on where you put the capo you can play Wonderwall, Boulevard Of Broken Dreams, 
Paradise, etc.

Please check out my YouTube guitar tutorial for this part by visiting 
http://www.youtube.com/watch?v=rEUSXz_TT-M or by searching 'jimmydotlynch'
Suggest correction
comments
print report bad tab
guest
You may want to rate the tab now too:
select rating
Wanna post a correction for this tab? Suggest correction