Oops, an error
Loading. Please wait.

Pumped Up Kicks Tab

version 1
version 1
647,236 views 1,188 this week
22 commentsread comments
1 2 3 4 5
accurate
x 80
add to favorites
launch autoscroll
font size
0
reset
how to read this tab
guitar tuner
Autoscroll
slow
fast
+/-
esc
set tempo
stop
Help us to improve Ultimate-Guitar.com Take our survey!
×
Author
Difficulty
novice
Intro:

e|---------------------------------------------------------------------------------|
b|---------------------------------------------------------------------------------|
g|-------------------------------------------------------------------------3h5p3-0-|
D|-------------------1-1-1-----------------------------------1-1-1h3p1-------------|  x2
A|-----------------3-------3-1-1-1-1h3p1-------------------3-----------3-1---------|
E|-1-1-1-3-4-4-4-6-----------------------3-1-1-1-3-4-4-4-6-------------------------|


Guitar 1:

e|----------------------------------------------------------------------------|
b|----------------------------------------------------------------------------|
g|----------------------------------------------------------------------------|
D|-------------------1-1-1------------------------------1-1-1-----------------|
A|-----------------3-------3-1-1-1--------------------3-------3-1-1-1-1h3p1---|
E|-1-1-1-3-4-4-4-6----------------3-4-1-1-1-3-4-4-4-6-----------------------1-|


Guitar 2(Solo+End):

e|-------------------------------------------------|
b|-------------------------------------------------|
g|------------------------------11-----------------|
D|----------------------10---12----12-10-10h12p10--|
A|-10-10-10-13-13-13-13----------------------------|
E|-------------------------------------------------|


http://www.fosterthepeople.com/


************************************
| h   Hammer-on
| p   Pull-off
************************************
Suggest correction
comments
print report bad tab
22 comments total. Showing first comments.
+1 reply
Bishop_16 171 wrote on January 18 2011, 03:10 pm

I think the chords are Fm, G#, D# and Bb for the chorus.

0 reply
mr.speaker 20 wrote on January 31 2011, 04:06 am

thanks man, you saved me a lot of experimenting for this song :)

+3 reply
he4dless 10 wrote on February 17 2011, 05:24 pm

TINY TINY correction! i think

 
e|----------------------------------|
b|----------------------------------|
g|----------------------------------|
D|-----------------1-1-1------------|
A|---------------3-------3-1-1-1-3--|
E|-1-1-1-3-4-4-4--------------------|

original

one note added

e|------------------------------------|
b|------------------------------------|
g|------------------------------------|
D|-----------------1-1-1--------------|
A|---------------3---------3-1-1-1-3--|
E|-1-1-1-3-4-4-4---------4------------|


though you really have to play the new note quite fast, nevertheless an awesome tab!

guest
You may want to rate the tab now too:
select rating
Please do not post tabs as comments. Select "correction" instead!