Oops, an error
Loading. Please wait.
We have an official Pumped Up Kicks tab made by UG professional guitarists. Check out the tab »
×
721,972 views 1,698 this week
20 commentsread comments
1 2 3 4 5
x 101
add to favorites
×
Save as Personal and add changes to this tab that will be seen only by you. Learn more ›
×
You can save this tab as Personal to edit and correct it or add notes. All changes will be seen only by you. Learn more »
save as personal
new!
launch autoscroll
font size
0
reset
how to read this tab
guitar tuner
backing track
0:00
0:00
Autoscroll
slow
fast
+/-
esc
set tempo
stop
Author
Difficulty
Tuning
novice
E A D G B E
Intro:

e|-----------------------------------------------------------------------------|
b|-----------------------------------------------------------------------------|
g|---------------------------------------------------------------------3h5p3-0-|
D|-------------------1-1-1-------------------------------1-1-1h3p1-------------|  x2
A|---------------3-------3-1-1-1-1h3p1-----------------3-----------3-1---------|
E|-1-1-1-3-4-4-6-----------------------3-1-1-1-3-4-4-6-------------------------|


Guitar 1:

e|------------------------------------------------------------------------|
b|------------------------------------------------------------------------|
g|------------------------------------------------------------------------|
D|-----------------1-1-1----------------------------1-1-1-----------------|
A|---------------3-------3-1-1-1------------------3-------3-1-1-1-1h3p1---|
E|-1-1-1-3-4-4-6----------------3-4-1-1-1-3-4-4-6-----------------------1-|


Guitar 2(Solo+End):

e|-------------------------------------------------|
b|-------------------------------------------------|
g|------------------------------11-----------------|
D|----------------------10---12----12-10-10h12p10--|
A|-10-10-10-13-13-13-13----------------------------|
E|-------------------------------------------------|


http://www.fosterthepeople.com/


************************************
| h   Hammer-on
| p   Pull-off
************************************
Suggest correction
comments
print report bad tab
20 comments total. Showing first comments.
+2 reply
Bishop_16 171 Jan 18, 2011 10:10 AM

I think the chords are Fm, G#, D# and Bb for the chorus.

0 reply
mr.speaker 30 Jan 30, 2011 11:06 PM

thanks man, you saved me a lot of experimenting for this song :)

+5 reply
he4dless 10 Feb 17, 2011 12:24 PM

TINY TINY correction! i think

e|----------------------------------|
b|----------------------------------|
g|----------------------------------|
D|-----------------1-1-1------------|
A|---------------3-------3-1-1-1-3--|
E|-1-1-1-3-4-4-4--------------------|

original

one note added

e|------------------------------------|
b|------------------------------------|
g|------------------------------------|
D|-----------------1-1-1--------------|
A|---------------3---------3-1-1-1-3--|
E|-1-1-1-3-4-4-4---------4------------|

though you really have to play the new note quite fast, nevertheless an awesome tab!

guest
You may want to rate the tab now too:
select rating
Wanna post a correction for this tab? Suggest correction