Oops, an error
Loading. Please wait.
We have an official Pumped Up Kicks tab made by UG professional guitarists. Check out the tab »
×

Pumped Up Kicks Bass

version 4
version 4

Whole song

Interactive

261,652 views 483 this week
17 commentsread comments
1 2 3 4 5
x 144
add to favorites
launch autoscroll
font size
0
reset
guitar tuner
backing track
0:00
0:00
Autoscroll
slow
fast
+/-
esc
set tempo
stop
Author
Tuning
E A D G
-------------------------------------------------------------------------------
                             PUMPED UP KICKS - Foster The People
-------------------------------------------------------------------------------

Tabbed By : lilmikers1024 
e-mail: sonicboom@whoever.com

Tuning: Standard 

 
G|-------------------------------------------------|
D|-------------------------------------------------|
A|-----------------------6--6--6-------------------|
E|--1--1--1-3--4--4--6-8---------8--6--6--6-3h4-6--|

G|-------------------------------------------------|
D|-------------------------------------------------|
A|-----------------------6--6--6h8p6---------------|
E|--1--1--1-3--4--4--6-8------------8p6--6--6h8p6-4|


And that's it, the bassist repeats this throughout the whole song.

 
************************************

| h  Hammer-on
| p  Pull-off

************************************
Suggest correction
comments
print report bad tab
17 comments total. Showing first comments.
+6 reply
kvngomez 10 Sep 08, 2011 02:51 PM

Dude, it's perfect

+19 reply
jordge-skis 32 Sep 20, 2011 08:12 PM

duuuude... duude. dude

+12 reply
btkircher 188 Feb 28, 2013 09:39 PM

Hendon, who the hell puts a capo on their bass?

guest
You may want to rate the tab now too:
select rating
Wanna post a correction for this tab? Suggest correction