Oops, an error
Loading. Please wait.

Pumped Up Kicks Bass Tab

version 5
version 5

Whole song

Interactive

21,724 views 18 this week
1 commentread comment
1 2 3 4 5
accurate
x 6
add to favorites
launch autoscroll
font size
0
reset
guitar tuner
Autoscroll
slow
fast
+/-
esc
set tempo
stop
Help us to improve Ultimate-Guitar.com Take our survey!
×
Author
-----------------------------------------------------------------------------
		    Pumped Up Kicks - Foster The People
-----------------------------------------------------------------------------

Tabbed By : AlanCo3
e-mail: christopherco3@gmail.com
Listen to the song for the rhythm, I played along and it sounded good.
h: hammer-on   p: pull-off
Tuning:Standard

(1)
G|----------------------------------------------|
D|------------------1-1-1-3---------------------|
A|--------------1-3---------1-1-1-3-3-----------|  In order, the song will
E|--1-1-1-3-4-4-----------------------1---------|  be played (1), (2), (1),
(2)                                                (2). After that the
G|------------------------------------------------|   entire song will
D|------------------1-1-1h3p1-3-------------------|   alternate between
A|--------------1-3-------------1-1-1h3p1---------|   (1) and (3) until it
E|--1-1-1-3-4-4---------------------------3-1-----|   ends. Also, I added (4),
(3)                                                 substitute it for (1)
G|------------------------------------------------|   whenever you'd like.
D|------------------1-1-1-3-----------------------|   Enjoy.
A|--------------1-3---------3-1-1-1h3p1-----------|
E|--1-1-1-3-4-4-------------------------3-1-------|
(4)
G|-------------------------------------------------|
D|------------------1-1-1-3------------------------|  (At times the bassist
A|--------------1-3----------1-1-1-----------------|   decides to take out
E|--1-1-1-3-4-4---------------------3-1------------|   a note, you'll hear it)
Suggest correction
What's this?
You can suggest a correction to this tab. Community and Mods will review your correction and vote to approve or reject it.
comments
print report bad tab
1 comment total.
0 reply
fefinfon 11 wrote on October 10 2013, 04:16 pm

I think 4 goes better than 1, just my opinion. NICE TAB

guest
You may want to rate the tab now too:
select rating
Please do not post tabs as comments. Select "correction" instead!