Oops, an error
Loading. Please wait.

Pumped Up Kicks Tab

version 5
version 5
19,345 views 3 this week
1 commentread comment
1 2 3 4 5
x 5
add to favorites
launch autoscroll
font size
0
reset
how to read this tab
guitar tuner
Autoscroll
slow
fast
+/-
esc
set tempo
stop
Help us to improve Ultimate-Guitar.com Take our survey!
×
Author
Difficulty
novice
Chords: Em, G, D, A

E|--------------------------------------------|
B|--------------------------------------------|
G|--------------------------------------------|
D|--------------------1--1-2-3----------------|
A|----------------3-4----------1--1-1-3-1-0---|
E|--1--1-2-3-4--4-----------------------------|
Suggest correction
comments
print report bad tab
1 comment total.
0 reply
N00ByGuitar 10 Aug 22, 2014 07:46 PM

E|-----------------------------------------------------------|
B|-----------------------------------------------------------|
G|-----------------------------------------------------------|
D|----------------------------1--1--1--1---------------------|
A|-------------------------1-3-----------3--1--1--1--1-------|
E|--1--1--1--1--3--4--4--4-----------------------------3--4--|

guest
You may want to rate the tab now too:
select rating
Wanna post a correction for this tab? Suggest correction