Oops, an error
Loading. Please wait.

Pumped Up Kicks Bass Tab

version 6
version 6

Whole song

Interactive

9,685 views 1 this week
no commentswrite comment
1 2 3 4 5
2 more votes to show rating
add to favorites
launch autoscroll
font size
0
reset
guitar tuner
Autoscroll
slow
fast
+/-
esc
set tempo
stop
Help us to improve Ultimate-Guitar.com Take our survey!
×
Author
Difficulty
novice
Hi everybody,I watched many video and I maid my own one for the acoustic live version of this song. Hope you like.

I pretty sure it's a standard tuning, but maybe i'm wrong...


G|-----------------------------------------------------------------------------------|
D|-----------------------------------------------------------------------------------|
A|--------------------------------------------------12-------------------------------|
E|--7---77---7-9-10---1010---10-12-14---1414---14----12--1212--10-9-10-7-------------|


G|-----------------------------------------------------------------------------------|
D|-----------------------------------------------------------------------------------|
A|--------------------------------------------------12h14p12-------------------------|
E|--7---77---7-9-10---1010---10-12-14---1414---14-----------14-12---9h10p9-10-7------|

There is a little variation when they are whistling:

G|------------------------------------------------12------------------------------|
D|-7---77---7-9-10---1010---10-12-14---1414---14----12--1212--10-9-10-7-----------|
A|--------------------------------------------------------------------------------|
E|--------------------------------------------------------------------------------|


G|--------------------------------------------------12h14p12-------------------------|
E|--7---77---7-9-10---1010---10-12-14---1414---14-----------14-12---9h10p9-10-7------|
A|-----------------------------------------------------------------------------------|
E|-----------------------------------------------------------------------------------|
Suggest correction
Give kudos to tab author, rate the tab!
1 2 3 4 5
comments
print report bad tab
guest
You may want to rate the tab now too:
select rating
Wanna post a correction for this tab? Suggest correction