Oops, an error
Loading. Please wait.

Pumped Up Kicks Bass Tab

version 7
version 7

Whole song

Interactive

14,567 views 3 this week
1 commentread comment
1 2 3 4 5
please rate
add to favorites
launch autoscroll
font size
0
reset
guitar tuner
Autoscroll
slow
fast
+/-
esc
set tempo
stop
Help us to improve Ultimate-Guitar.com Take our survey!
×
Author
Difficulty
novice
The bassist simply repeats this and variations of throughout the whole song.  The timing
isn't exact, but if you just listen to the song, you'll be able to do it.  I think this
is the easiest way to play this piece for bass.  Thanks and have fun learning this great 
bass piece.

Tuning is standard bass tuning
G |----------------------------------------------------|
D |--------------------0-0-0---------------------------|
A |----------------0-2-------0-2---2-0-----------------|
E |-0--0-0--2-3-3----------------0-----3-2-0-----------|

G |------------------------------------------------------|
D |--------------------0-0-0-----------------------------|
A |----------------0-2-------0-2-2-2---------------------|
E |-0--0-0--2-3-3--------------------3-2-0---------------|
Suggest correction
Give kudos to tab author, rate the tab!
1 2 3 4 5
comments
print report bad tab
1 comment total.
+1 reply
btkircher 188 wrote on March 14 2013, 01:50 am

Wrong key, brother. Only way this would work is relative to a capo on 1.

guest
You may want to rate the tab now too:
select rating
Please do not post tabs as comments. Select "correction" instead!