Oops, an error
Loading. Please wait.

Pumped Up Kicks Bass Tab

version 8
version 8

Whole song

Interactive

3,406 views 6 this week
no commentswrite comment
1 2 3 4 5
1 last vote to show rating
add to favorites
launch autoscroll
font size
0
reset
guitar tuner
Autoscroll
slow
fast
+/-
esc
set tempo
stop
Help us to improve Ultimate-Guitar.com Take our survey!
×
Author
Difficulty
novice

------------------------------------------------------------------------------
                    Foster the people - Pumped up kicks
------------------------------------------------------------------------------

Submitted by: Liam Lucas 

Email: l_lucas@vodafone.co.nz
Tuning: standard


G|---------------------------------------------------------------------------|
D|---------------------------------------------------------------------------|
A|-------------3-6-6-6--3--1-1-1---------------------------------------------|
E|--1-1-1--3-4--------------------3-1----------------------------------------|

G|---------------------------------------------------------------------------|
D|---------------------------------------------------------------------------|
A|-------------3-6-6-6--3--1-1-1---------------------------------------------|
E|--1-1-1--3-4--------------------3-1----------------------------------------|

G|---------------------------------------------------------------------------|
D|---------------------------------------------------------------------------|
A|-------------3-6-6-6--3--1-1-1---------------------------------------------|
E|--1-1-1--3-4--------------------3-1----------------------------------------|

G|---------------------------------------------------------------------------|
D|---------------------------------------------------------------------------|
A|-------------3-6-6-6--3--1-1-1---------------------------------------------|
E|--1-1-1--3-4--------------------3-1----------------------------------------|

If you want you can play like this:

G|---------------------------------------------------------------------------|
D|--------------1-1-1--------------------------------------------------------|
A|-------------3--------3--1-1-1---------------------------------------------|
E|--1-1-1--3-4--------------------3-1----------------------------------------|

Play any of these through whole song, please email if wrong or you got questions or something.

Robert's got a quick hand
He'll look around the room
He won't tell you his plan
He's got a rolled cigarette hanging out his mouth 
He's a cowboy kid
Yeah, he found a six-shooter gun
In his dad's closet hidden in a box of fun things
And I don't even know what
But he's coming for you, yeah, he's coming for you

All the other kids with the pumped up kicks 
You'd better run, better run, outrun my gun
All the other kids with the pumped up kicks 
You'd better run, better run, faster than my bullet
All the other kids with the pumped up kicks 
You'd better run, better run, outrun my gun
All the other kids with the pumped up kicks 
You'd better run, better run, faster than my bullet

Daddy works a long day
He be coming home late, yeah, he's coming home late
And he's bringing me a surprise
Because dinner's in the kitchen and it's packed in ice
I've waited for a long time
Yeah, the slight of my hand is now a quick pull trigger
I reason with my cigarette
And say your hair's on fire
You must have lost your wits, yeah

All the other kids with the pumped up kicks 
You'd better run, better run, outrun my gun
All the other kids with the pumped up kicks 
You'd better run, better run, faster than my bullet
All the other kids with the pumped up kicks 
You'd better run, better run, outrun my gun
All the other kids with the pumped up kicks 
You'd better run, better run, faster than my bullet

All the other kids with the pumped up kicks 
You'd better run, better run, outrun my gun
All the other kids with the pumped up kicks 
You'd better run, better run, faster than my bullet
All the other kids with the pumped up kicks 
You'd better run, better run, outrun my gun
All the other kids with the pumped up kicks 
You'd better run, better run, faster than my bullet
All the other kids with the pumped up kicks 
You'd better run, better run, outrun my gun
All the other kids with the pumped up kicks 
You'd better run, better run, faster than my bullet
Suggest correction
Give kudos to tab author, rate the tab!
1 2 3 4 5
comments
print report bad tab
guest
You may want to rate the tab now too:
select rating
Wanna post a correction for this tab? Suggest correction