Oops, an error
Loading. Please wait.

Pumper Up Kicks Bass Tab

version 2
version 2

Whole song

343 views 1 this week
no commentswrite comment
1 2 3 4 5
please rate
add to favorites
launch autoscroll
font size
0
reset
guitar tuner
Autoscroll
slow
fast
+/-
esc
set tempo
stop
Help us to improve Ultimate-Guitar.com Take our survey!
×
Author
Difficulty
novice
G |----------------5-8-8-8--5---------------------|
D |--------5-6-6-8-------------8-8-8-6-5----------|  
A |--8-8-8-------------------------------8--------|
E |-----------------------------------------------|

G |----------------5-8-8-8-6-5--------------------|
D |--------5-6-6-8--------------8-8-8-6-5---------|
A |--8-8-8----------------------------------8-----|
E |-----------------------------------------------|

this is pretty much played through the whole song 

Enjoy :)
Suggest correction
Give kudos to tab author, rate the tab!
1 2 3 4 5
comments
print report bad tab
guest
You may want to rate the tab now too:
select rating
Please do not post tabs as comments. Select "correction" instead!