Oops, an error
Loading. Please wait.

Sit Next To Me bass

1,204 views 66 this week
1 commentread comment
1 2 3 4 5
x 6
add to favorites
×
Save as Personal and add changes to this tab that will be seen only by you. Learn more ›
×
You can save this tab as Personal to edit and correct it or add notes. All changes will be seen only by you. Learn more »
launch autoscroll
font size
0
reset
guitar tuner
edit
Autoscroll
slow
fast
+/-
esc
set tempo
stop
[Verse]
G|-11---------------|-9-10-11------------------|-----------------|---------------------------|
D|----11------7-9---|---------11---9-10-11-7---|-----------------|-----------------7h9p7-7---|
A|--------9-7-----7-|------------9-----------7-|-9-----9-7-----7-|-7-9-7-------9-7---------7-|
E|------------------|--------------------------|---7-9-----5-7---|-------9-7-9---------------|

G|-9-10-11---------------|-9-10-11---------------|-9-10-11-------------------|---------------------|
D|---------11------7-9---|---------11----9-------|---------11------7h9p7-9---|-----------7h9p7-9---|
A|-------------9-7-----7-|-------------9-------7-|-------------9-7---------7-|-9-----9-7---------7-|
E|-----------------------|-----------------5-7---|---------------------------|---7-9---------------|

[Chorus]
G|-------------|-----4-----------|---------------|-----------4-----------|
D|-------------|---4-----------2-|-------------2-|-2-4-2---------------2-|
A|-2-----0-2---|-2---------0-2---|-4-2-----0-2---|-------4-2-------0-2---|
E|---2-0-----0-|-------2-0-------|-----2-0-------|-------------2-0-------|

G|-----------4---------2---2---|-------------4---------------|
D|-2-2-4-4---------2-4---------|-2-2-------4---4---2-4-----2-|
A|---------2---2---------0-----|-----0-0-2-------------0-2---|
E|---------------2-----------0-|-----------------2-----------|

[Verse]
G|-11---------------|-9-10-11------------------|-----------------|-----------------------|
D|----11------7-9---|---------11---9-10-11-7---|-----------------|-----------------7-6---|
A|--------9-7-----7-|------------9-----------7-|-9-----9-7-----7-|-7-9-7-------9-7-----7-|
E|------------------|--------------------------|---7-9-----5-7---|-------9-7-9-----------|

G|-11---------------|-9-10---------------|
D|----11------7-9---|--------------------|
A|--------9-7-----7-|----------9-7-----7-|
E|------------------|------7-9-----5-7---|

[Chorus]
G|-------------|-----4-----------|---------------|-----------4-----------|
D|-------------|---4-----------2-|-------------2-|-2-4-2---------------2-|
A|-2-----0-2---|-2---------0-2---|-4-2-----0-2---|-------4-2-------0-2---|
E|---2-0-----0-|-------2-0-------|-----2-0-------|-------------2-0-------|

G|-----------4---------2---2---|-------------4---------------|
D|-2-2-4-4---------2-4---------|-2-2-------4---4---2-4-----2-|
A|---------2---2---------0-----|-----0-0-2-------------0-2---|
E|---------------2-----------0-|-----------------2-----------|

G|---------4-4---4---------2---2---|-------------4---------------|
D|-----2-2-------------2-4---------|-2-2-------4---4---2-4-----2-|
A|-2-2---------2---2---------0-----|-----0-0-2-------------0-2---|
E|-------------------2-----------0-|-----------------2-----------|

[Chorus]
(Play this after the bridge ends. The bass doesn't play during the bridge.)
G|-----------|-----4-----------|---------------|-----------4-----------|
D|-----------|---4-----------2-|-------------2-|-2-4-2---------------2-|
A|-----0-2---|-2---------0-2---|-4-2-----0-2---|-------4-2-------0-2---|
E|-12\-----0-|-------2-0-------|-----2-0-------|-------------2-0-------|

[Outro]
G|-------------4-----------|-------4------------|---------4-4-----4-----------|-----4-----------|
D|-2-2-4-4---4-------------|-2---4------------2-|-----2-2-------4-----------2-|---4-------------|
A|---------2---------0-2---|---2----------0-2---|-2-2---------2---------0-2---|-2---------0-0---|
E|---------------2-0-----0-|----------2-0-------|-------------------2-0-------|-------2-0-----0-|


************************************

| h   Hammer-on
| p   Pull-off
| /   Slide up
| \   Slide down

************************************

            
            
Suggest correction
Creating personal tab
Creating personal tab
You can edit any tab online and save it as your Personal.

You can edit, replace or remove any tab part or add personal notes – all changes will be seen only by you.

Personal tabs can be accessed anytime from any device, even offline.
Learn more »
comments
print report bad tab
1 comment total.
0 reply
joelswt 10 Aug 26, 2017 01:47 PM

good job

guest
You may want to rate the tab now too:
select rating
Wanna post a correction for this tab? Suggest correction