Oops, an error
Loading. Please wait.

2022 tab

version 1
version 1

Whole song

509 views 9 this week
no commentswrite comment
1 2 3 4 5
1 last vote to show rating
add to favorites
×
Save as Personal and add changes to this tab that will be seen only by you. Learn more ›
×
You can save this tab as Personal to edit and correct it or add notes. All changes will be seen only by you. Learn more »
launch autoscroll
font size
0
reset
how to read this tab
guitar tuner
edit
Autoscroll
slow
fast
+/-
esc
set tempo
stop
Intro.
E------------------------
B---------7-6------------
G-------6------6------6--
D-----6----------6-------
A--4----------------4----
E------------------------
La intro no es más que hacer la posición del acorde C#m
y barrer hacia abajo, adelantar el meñique una posición,
retrocederlo, y volver a subir para terminar como se indica.
De ahí directo al rasgueo.


Rasgueo post Intro: C#maj7 - Am# - C#maj7 - Am#


Este primer Am# tiene un muy pequeño adornito, lo escribiría así:

E----6--x-x--6--6--6---8-6--
B----6--x-x--6--6--6---6-6--
G----6--x-x--6--6--6---6-6--
D----8--x-x--8--8--8---8-8--
A----8--x-x--8--8--8---8-8--
E----6--x-x--6--6--6---6-6--

Y en el segundo C#maj7 hace exactamente el mismo adorno del am#.
Mientras rasguea levanta el dedo meñique de la cuerda 2
(debería estar en el sexto espacio)
y lo pone en la cuerda uno, también sexto espacio,
vuelve a levantar y vuelve a dejarlo en su posición de origen.

Destaco tanto estos dos adornos porque en todo el transcurso de
la canción en muchas ocasiones lo usan.
Es cosa que le peguen una escuchada y se van a dar cuenta
que está ahí recurrentemente, y es muy simple y suena muy bien.

Verso:

C#maj7                A#m            C#maj7
     El mundo no está como para andar
            A#m
Sobreviviendo-lo  solo
F#               G#                  C#maj7
Acompáñame a caminar por el  parque Bustamente
  A#m                      F#
Compramos después una caja de vino
G#                  C#maj7
Por esta vez la pagas tú

C#maj7         A#m                C#maj7
Cuando digo ?A? tu siempre dices ?B?
              A#m
Que gusto ser tan distintos.
F#                      G#
Ir al cine juntos, no encontrar que ver.
     C#maj7                   A#m
Hacer 30 planes, fracasar siempre
    F#                 G#                C#maj7
Y después de todo terminar pasándola tan bien
A#m - C#maj7 - A#m
a a a aaa

C#maj7              A#m                C#maj7
Sé que quizás no nos conozcamos bien,
          A#m
Ay pero necesito decirte
 F#                        G#
Tengo tantas cosas que agradecer,
        C#maj7                  A#m
pero me paralizo si pienso que?
F#                 G#                C#maj7        A#m
no mejor olvídalo, no me hagas caso por favor

inter: F# - G# - C#maj7- A#m (bis)
Y sobre el inter va este solo

Primera parte, repite 5 veces.
E-11-11-11--13-13-13--11-11-11------------------------------------
B------------------------------14-14-14--11-11-14-14--------------
G-----------------------------------------------------------------
D-----------------------------------------------------------------
A-----------------------------------------------------------------
E-----------------------------------------------------------------
Segunda parte, repite 2 veces.
E-14-14-14-16-16-16-14-14-14--13-13-13--------13-13---------------
B---------------------------------------16-16---------------------
G-----------------------------------------------------------------
D-----------------------------------------------------------------
A-----------------------------------------------------------------
E-----------------------------------------------------------------

F#                         G#
tengo tantas cosas que agradecer,
         C#maj7                A#m
pero me paralizo si pienso que

    F#              G#                   C#maj7
no mejor olvídalo, no me hagas caso por favor

F#                         G#
tengo tantas cosas que agradecer,
  C#maj7                    A#m
pero me paralizo si pienso que
F#                          G#                 C#maj7
no hay deuda que no se pague ni plazo que no llegue
A#m
a a a aaa
F#            G#              C#maj7                 A#m
tengo, tengo, tengo, tengo, tengo ay que decirte que
F#                          G#                 C#maj7
no hay deuda que no se pague ni plazo que no llegue

A#m - C#maj7 - A#m - C#maj7 ?
Y termina con el solo tocandose difuso atras.

Toda la canción tiene dos guitarras.
 La primera lleva los acordes que están acá.
La segunda o está haciendo arpegios sobre estos mismos acordes
ó está haciendo adornitos basandose en la misma escala en la que
está la línea vocal, que al mismo tiempo coincide con las mismas
notas (tocadas diferentes) de las que está el sólo.
Casi cualquier adorno que escuchen que hace la guitarra dos,
contiene la mismas notas de lo que acá nombré como
"solo primera parte".
Eso, saludos y ojalá que les sirva,
porque sin importar los años que esta canción tiene,
todavía no veía una versión más o menos decente de ella.

            
            
Suggest correction
Creating personal tab
Creating personal tab
You can edit any tab online and save it as your Personal.

You can edit, replace or remove any tab part or add personal notes – all changes will be seen only by you.

Personal tabs can be accessed anytime from any device, even offline.
Learn more »
Give kudos to tab author, rate the tab!
1 2 3 4 5
comments
print report bad tab
guest
Wanna post a correction for this tab? Suggest correction