Oops, an error
Loading. Please wait.

Gran Puente tab

version 1
version 1

Whole song

63 views 1 this week
no commentswrite comment
1 2 3 4 5
3 more votes to show rating
add to favorites
×
Save as Personal and add changes to this tab that will be seen only by you. Learn more ›
×
You can save this tab as Personal to edit and correct it or add notes. All changes will be seen only by you. Learn more »
launch autoscroll
font size
0
reset
how to read this tab
guitar tuner
edit
Autoscroll
slow
fast
+/-
esc
set tempo
stop
Esta es una excelente canción que DEBES aprenderte ;D


DO#m


Abajo están los acordes que acompañan al punteo.

Comienza con un punteo loco que es así:

A*)1-------------7------------
   2--------7-9----9-7--------
   3---6-9-------------9-6----               x4
   4--------------------------
   5--------------------------
   6--------------------------

(Mantiene un DO#m hasta la segunda vuelta
del punteo variando a DO#m7. En la tercera vuelta cambia a LA y
a SOL#7. Vuelve a DO#m en la última)

B*)1-------------9------------
   2--------7-9-----9-7-------
   3---6-9-------------9-6----               x1
   5--------------------------
   6--------------------------
A*) x3

(Se tocan los mismos acordes que arriba)
(DO#m DO#m7 LA SOL#7 DO#m)

C*)1---------7--11--7---------
   2-----7-9----------9-7-----
   3---9------------------9---               x2
   4--------------------------
   5--------------------------
   6--------------------------
A*) x1
B*) x1

(Se tocan los mismos)
(DO#m DO#m7 LA SOL#7 DO#m)

A*) x2
D*)1--------------------------------------
   2--8-8-8-8--8-8-8-8--8-8-8-8>->->->->3-     Se mezcla con el REm
   3--------------------------------------
   4--------------------------------------
   5--------------------------------------
   6--------------------------------------

(Se toca igual)
(DO#m DO#m7 LA SOL#7 DO#m)

Elegí esta posición de punteos porque son los que más cerca quedan del DO#m
para poder comenzar a tocar y son los que más comodos me quedan xD


¡Ahora, acordes!


A)
                           (Se puede jugar con el  )
                           (traste 7 de la cuerda 2 )
                           (ó en el traste 8 de la   )
                      SOL#7(cuerda 1, en esta posición) DO#m
Pasaron la tarde solos

                            SOL#7 DO#m
sus padres fueron a comprar


B)
DO#m            SOL#7
Jugaron un rato Super Nintendo,

DO#m      RE        LA
tomaron leche y cereal.

RE      REm        DO#m   FA#m
Se pelearon por tonte·····ras.

LA      SOL#7 DO#m
Miraron CineCanal


      SOL#7 DO#m
¡Auuu!   ¡Ahhh!

      SOL#7 DO#m


A)
No habia anochecido aún
cuando escucharon la reja.

B)
Pensando que eran sus padres de vuelta
quitaron llave a la puerta:
Veloces los corazones
al ver tres hombres entrar.

C)
DO#m   LA    SOL#7
Ahhhhh-Ahhhh-Ahhhhh            x4


SOL#-DO#m-SOL#-DO#m-SOL#-SOL#


B)
Eran dos niños como mis hermanos
que en la noche acostarán
uno dentro de una caja,
otro en el hospital.


         SOL#7   DO#m
                 ¡Eh-eh-eh-eh-eh-eh-eh-oh!

         SOL#7   DO#m
      (ya-ya-ya-yap)

         SOL#7   DO#m
  ¡Ahhhhhhrgggg!


¡Fin!
Suerte sacandola, fijense bien en los momentos que van cada nota.

¡Arriba el rock chileno!

            
            
Suggest correction
Creating personal tab
Creating personal tab
You can edit any tab online and save it as your Personal.

You can edit, replace or remove any tab part or add personal notes – all changes will be seen only by you.

Personal tabs can be accessed anytime from any device, even offline.
Learn more »
Give kudos to tab author, rate the tab!
1 2 3 4 5
comments
print report bad tab
guest
Wanna post a correction for this tab? Suggest correction