Oops, an error
Loading. Please wait.

Tirado Al Sol bass

version 2
version 2

Whole song

44 views 1 this week
no commentswrite comment
1 2 3 4 5
3 more votes to show rating
add to favorites
×
Save as Personal and add changes to this tab that will be seen only by you. Learn more ›
×
You can save this tab as Personal to edit and correct it or add notes. All changes will be seen only by you. Learn more »
launch autoscroll
font size
0
reset
guitar tuner
edit
Autoscroll
slow
fast
+/-
esc
set tempo
stop
Esta es la base de los versos y la intro:
--------------------------------------------
--------------------------------------------
------0-2-5-5--7-7-7-0-7-0-7----------------
-3--3---------------------------------------


Y estas 2 son las variaciones que se hacen:
---------------------------------------------
-----------------------5---------------------
------0-2-5-5--7-7-7-7---7-5-----------------
-3--3------------------------7---------------

-------------------------------------------
-----------------------5h7-5---------------
------0-2-5-5--7-7-7-7---------------------
-3--3--------------------------------------

La Escala que hacen antes de "Fue culpa mía el elegir..."
-----------------3----------------------------------
-----------3--5-----5-4-3--3--3-3-------------------
--3--5--6-------------------------------------------
-----------------------------------1--1-1--1-1--1-1-

Mientras canta "Fue culpa mía el elegir..."
(La primera vez)
------------------------------------
------------------------------------
-3-------------------3--------------
-----------1------------------1-----
Mientras canta:"Si por ti fuera, estaría tirado al sol..."
-------------------------------------
-------------------------------------
-3(x8)--4(x8)--5(x9)-----------------
-------------------------------------


En la parte del "OhhOooohhoooh" (jasjkajska)
-----------------------------------------
-----------------------------------------
--------------------------0-(lo mismo)---
-0(repitela hartas veces)----------------


Cuando ya comienzan a tocar con tuti el "OooohohohohO"

--- Me dio paja sacar bien esta parte, pero son estas notas,
ahi vean como le hacen, o veo si algun dia no me da paja escribirlo---

----------------
----------------
-------0--3-----
-0--3-----------


Eso, vean si les sale, o si no me mandan a la mierda, cosa suya ahahahhah
Salud!

            
            
Suggest correction
Creating personal tab
Creating personal tab
You can edit any tab online and save it as your Personal.

You can edit, replace or remove any tab part or add personal notes – all changes will be seen only by you.

Personal tabs can be accessed anytime from any device, even offline.
Learn more »
Give kudos to tab author, rate the tab!
1 2 3 4 5
comments
print report bad tab
guest
Wanna post a correction for this tab? Suggest correction