Oops, an error
Loading. Please wait.

Bright Future In Sales Bass Tab

version 1
version 1

Whole song

Interactive

1,022 views 6 this week
no commentswrite comment
1 2 3 4 5
please rate
add to favorites
launch autoscroll
font size
0
reset
guitar tuner
Autoscroll
slow
fast
+/-
esc
set tempo
stop
Help us to improve Ultimate-Guitar.com Take our survey!
×
Difficulty
intermediate
Song:   Bright Future in Sales
Artist: Fountains of Wayne
Tabs:   Graham K.
Tuning: EADG

"Was gonna tab something by Slayer but though f*** that."

Main Riff

G----------------------------------|
D-------------5-0-7----------------|
A-0--3-4-5--3-------0--3-5-5h6-5-3-|
E----------------------------------|

Verse

G---------------------------------------------------------------
D---------------------------------------------------------------
A---------------------------------5-5-5-5-5-5-5-5---3-4-5--5--5-
E-5-5-5-5-5-5-5-5-0-0-0-0-0-0-0-0-----------------5-------------

G---------------------------------------------------------------
D---------------------------------------------------------------
A---------------------------------5-5-5-5-5-5-5-5---------------
E-5-5-5-5-5-5-5-5-0-0-0-0-0-0-0-0-----------------5-5-5-5-5-5-5-

G---------------------------------------------------------------|---|
D---------------------------------------------------------------|---|
A-5-5-5-5-5-5-5-5-----------------5-5-5-5-5-5-5-5---------------|-5-|
E-----------------5-5-5-5-5-5-5-5-----------------2-2---2-2-2-7-|---|

Chorus
                        X2
G-------------------------|---------------------------------------------------|
D-------------------------|---------------------------------------------------|
A-----7-7-----------------|-----------------2-2-2-2-2-2-2-2-----------------5-|
E-5-5-----7-7----7--7-7-7-|-2-2-2-2-2-2-2-2-----------------3-3-3-3-3-3-3-3---|

Bridge

G-------------------------------------|
D-------------------------------------|
A-7-----------------7-----------------|
E----------7----------------7---8--10-|

Solo

G-------------------|
D-------------------|
A---Repeat---Verse--|
E-------------------|

End On

G---|
D---|
A---|
E-5-|

Structure / Order

Main Riff X2
Verse     X1
Chorus    X1
Main Riff X2
Verse     X1
Chorus    X1
Main Riff X4
Bridge    X1
Main Riff X1
Solo      X1
*Pause*
Chorus    X1
Main Riff X4
End       X1

---
Ta m8!
---
Cougar
Suggest correction
Give kudos to tab author, rate the tab!
1 2 3 4 5
comments
print report bad tab
guest
You may want to rate the tab now too:
select rating
Please do not post tabs as comments. Select "correction" instead!