Oops, an error
Loading. Please wait.

Hackensack Tab

version 1
version 1

Intro

Whole song

Interactive

4,417 views 1 this week
2 commentsread comments
1 2 3 4 5
please rate
add to favorites
launch autoscroll
font size
0
reset
how to read this tab
guitar tuner
Autoscroll
slow
fast
+/-
esc
set tempo
stop
Help us to improve Ultimate-Guitar.com Take our survey!
×
                      Fountains Of Wayne
                         Hackensack

                       this song is way easy!
intro/verse
e------------------------------------------------------------------------|
b------------------------------------------------------------------------|
g-----------------5------------------------------------------------------|
d--5----3----5--------5------------3------5--5-----------------6---5-----|
a----------------------------6-----------------6----5----5-------------6-|
e------------------------------------------------------------------------|


i would have shown the chorus but im working on it , it doesnt sound right on my acoustic
Suggest correction
Give kudos to tab author, rate the tab!
1 2 3 4 5
comments
print report bad tab
2 comments total.
0 reply
chalres 61 wrote on April 23 2007, 01:39 pm

i'm more inclined to believe that its

e------------
b------------
g------------
d------------
a-6----5----6
e------------

0 reply
Knight_Xtrix 10 wrote on August 28 2007, 10:40 pm

it doesn't sound right on my acoustic either! just bit out of tune somehow, any ideas on it yet?

guest
You may want to rate the tab now too:
select rating
Wanna post a correction for this tab? Suggest correction