Oops, an error
Loading. Please wait.

Hackensack Chords

version 3
version 3

Whole song

Interactive

2,199 views 6 this week
no commentswrite comment
1 2 3 4 5
excellent!
x 5
add to favorites
launch autoscroll
font size
0
reset
transpose
0
reset
display chords
guitar tuner
Tab Pro tools
  • play this tab
  • loop segment
  • change instrument
  • show fretboard
  • metronome
×
Best way to learn
"Hackensack"
Autoscroll
slow
fast
+/-
esc
set tempo
stop
Difficulty
novice
Fountains of Wayne - Hackensack

Thanks to Lee Neitzel for figuring out the Chords, I just made some slight changes and 
added the solos.

Capo on the Third Fret, everything is relative to capo!

Intro:

E----------------------------------------------------------------|
B----------------------------------------------------------------|
G--------2-------------------------------------------------------|
D--2-0-2-----2-----0-2-2----------------3---2--------------------|
A----------------3----------------3-2-3---------3----------------|
E----------------------------------------------------------------|


Am                      C
I used to know you when you were young
F                  C     E
You were in all my dreams
Am                 C
We sat together in period one
F                   C   E
Fridays at eight-fifteen
Am                         C
Now I see your face in the strangest places
F              C    E
Movies and magazines
Am                   C
I saw you talking to Christopher Walken
F        C
On my TV screen

    F               C
But I will wait for you
   F                Em  G
As long as I need to
           Am               C
And if you ever get back to Hackensack
F                C
I'll be here for you




E----------------------------------------------------------------|
B----------------------------------------------------------------|
G--------2-------------------------------------------------------|
D--2-0-2-----2-----0-2-2----------------3---2--------------------|
A----------------3----------------3-2-3---------3----------------|
E----------------------------------------------------------------|


Am                  C
I used to work in a record store
F                 C  E
Now I work for my dad
Am                        C
Scraping the paint of the hardwood floors
F                    C  E
The hours are pretty bad
Am                       C
Sometimes I wonder where you are now
F            C E
Probably in LA
Am                     C
That seems to be where everybody
F                  C
Else ends up these days

    F               C
And I will wait for you
   F                Em  G
As long as I need to
           Am               C
And if you ever get back to Hackensack
F                C
I'll be here for you

Bridge

E---------------------------------------------------------|
B-------1-----------1-----------0----------1--------------|
G---------------------------------------------------------|  (Play Twice)
D--2-----------2-----------0----------2-------------------|
A----3-----------3-----------2----------3-----------------|
E---------------------------------------------------------|



E---------------------------------------------------------|
B-------1-----------1-----------0----------0--------------|
G---------------------------------------------------------|
D--2-----------2-----------0----------0-------------------|
A----3-----------3-----------2----------2-----------------|
E---------------------------------------------------------|

    F               C
And I will wait for you
   F                Em  G
As long as I need to
           Am               C
And if you ever get back to Hackensack
F                C
I'll be here for you

           Am               C
And if you ever get back to Hackensack
F                C
I'll be here for you

E----------------------------------------------------------------|
B----------------------------------------------------------------|
G--------2-------------------------------------------------------|
D--2-0-2-----2-----0-2-2----------------3---2--------------------|
A----------------3----------------3-2-3---------3----------------|
E----------------------------------------------------------------|

End on C





Tabbed by Cybershock
comments
print report bad tab
I want to post or [tab]
guest
You may want to rate the tab now too:
select rating
Please do not post tabs as comments. Select "correction" instead!