Oops, an error
Loading. Please wait.

Hackensack Tab

version 3
version 3

Whole song

Interactive

387 views 1 this week
no commentswrite comment
1 2 3 4 5
3 more votes to show rating
add to favorites
launch autoscroll
font size
0
reset
how to read this tab
guitar tuner
Autoscroll
slow
fast
+/-
esc
set tempo
stop
Help us to improve Ultimate-Guitar.com Take our survey!
×
Author
Difficulty
Capo
novice
3rd fret
                                   "Hackensack" by Fountains of Wayne

Note: Capo on 3rd Fret


INTRODUCTION:

e-------------------------------------------------------------------------|
b-------------------------------------------------------------------------|
g------------------2------------------------------------------------------|
d-----2---0---2---------2----------0-----2---2---------------3-----2------|
a-----------------------------3--------------------3---2---3------------3-|
e-------------------------------------------------------------------------|



VERSE: 1

Am                      C
I used to know you when you were young
F                  C     E
You were in all my dreams
Am                 C
We sat together in period one
F                   C   E
Fridays at eight-fifteen
Am                         C
Now I see your face in the strangest places
F              C    E
Movies and magazines
Am                   C
I saw you talking to Christopher Walken
F        C
On my TV screen


CHORUS:

    F               C
But I will wait for you
   F                Em  G
As long as I need to
           Am               C
And if you ever get back to Hackensack
F                C
I'll be here for you

VERSE 2:

Am                  C
I used to work in a record store
F                 C  E
Now I work for my dad
Am                        C
Scraping the paint of the hardwood floors
F                    C  E
The hours are pretty bad
Am                       C
Sometimes I wonder where you are now
F            C E
Probably in LA
Am                     C
That seems to be where everybody
F                  C
Else ends up these days

BRIDGE/ Guitar Solo

e-------------------------------|
b----------------1--------------|
g-------------------------------|
d---2---------------------------|             2x
a----------3--------------------|
e-------------------------------|


e----------------------|
b------------0---------|
g----------------------|    1x
d---0------------------|
a--------2-------------|
e----------------------|


e-------------------------------|
b----------------1--------------|
g-------------------------------|
d---2---------------------------|             3x
a----------3--------------------|
e-------------------------------|


e------------------|
b------------0-----|
g------------------|     1x
d---0--------------|
a--------2---------|
e------------------|


e-------------------------------|
b----------------1--------------|
g-------------------------------|
d---2---------------------------|             3x
a----------3--------------------|
e-------------------------------|


e---------------------------------|
b-------------0-------------------|
g---------------------------------|                  2x
d-----0---------------------------|
a---------2-----------------------|
e---------------------------------|

CHORUS:

    F               C
And I will wait for you
   F                Em  G
As long as I need to
           Am               C
And if you ever get back to Hackensack
F                C
I'll be here for you

OUTRO:

e-------------------------------------------------------------------------|
b-------------------------------------------------------------------------|
g------------------2------------------------------------------------------|
d-----2---0---2---------2----------0-----2---2---------------3-----2------|
a-----------------------------3--------------------3---2---3------------3-|
e-------------------------------------------------------------------------|


Sincerely,
El Mariachi
Suggest correction
Give kudos to tab author, rate the tab!
1 2 3 4 5
comments
print report bad tab
guest
You may want to rate the tab now too:
select rating
Wanna post a correction for this tab? Suggest correction