Oops, an error
Loading. Please wait.

Hey Julie Tab

version 1
version 1

Whole song

Interactive

Video

34,142 views 15 this week
no commentswrite comment
1 2 3 4 5
excellent!
x 13
add to favorites
launch autoscroll
font size
0
reset
how to read this tab
guitar tuner
Tab Pro tools
  • play this tab
  • loop segment
  • change instrument
  • show fretboard
  • metronome
×
Best way to learn
"Hey Julie"
Autoscroll
slow
fast
+/-
esc
set tempo
stop
Contributor
Artist: Fountains Of Wayne
Song: Hey Julie
Tuning: Stadard [EADGBe]

Notes: Chords with an asterisk (*) means to single strum and let ring.
       Chords at the end for practicing (no vocals or solos).
       Chords used:
                           G    C9   D    Em7  Bm
                       e|--3----3----2----3----2--|
                       B|--3----3----3----3----3--|
                       G|--0----0----2----0----4--|
                       D|--0----2----0----2----4--|
                       A|--2----3---------2----2--|
                       E|--3--------------0-------|

       Strumming Pattern Example:
                          G     C9      G         D
                       e|-3---3-3-3---3-3-|---3---2-2-2-2-2-|
                       B|-3---3-3-3---3-3-|---3---3-3-3-3-3-|
                       G|-0---0-0-0---0-0-|---0---2-2-2-2-2-|
                       D|-0---0-2-2---2-0-|---0---0-0-0-0-0-|
                       A|-2---2-3-3---3-2-|---2-------------|
                       E|-3---3---------3-|---3-------------|
                          1 + 2 + 3 + 4 +   1 + 2 + 3 + 4 +

       Please comment & rank. Thank you!!!




[INTRO]
|G - C9 -|G - D -|G - C9 -|G - D -|


[VERSE 1]
G           C9        G           D
Working all day for a mean little man
       G       C9        G      D
With a clip-on tie and a rub-on tan
            Em7                C9            D            G
He's got me running 'round the office like a dog around a track
    Em7             C9                  D               G
But when I get back home, you're always there to rub my back


[CHORUS]
G   C9
Hey Julie,
D                 C9
Look what they're doing to me
Em7               C9
Trying to trip me up
          D       G
Trying to wear me down
G        C9          D          C9
Julie, I swear, it's so hard to bear it
        Em7           C9           D       G
And I'd never make it through without you around
        Em7           C9           D       G
No I'd never make it through without you around


[PREVERSE]
Piano:
   G       C9        G       D           G       C9        D       G
e|-----7---8-7-----|---7--------7------|-----7---8-7-----|-----------------|
B|-------8-----8---|-------8-10---10-8-|-------8-----8---|---7---8---------|
G|---------------7-|-------------------|-7-------------7-|-----------------|
D|-----------------|-------------------|-----------------|-----------------|
A|-----------------|-------------------|-----------------|-----------------|
E|-----------------|-------------------|-----------------|-----------------|
   1 + 2 + 3 + 4 +   1 + 2 + 3  + 4  +   1 + 2 + 3 + 4 +   1 + 2 + 3 + 4 +

Harmonica:
e|-7---------------|---------8-7------|-7----------------|-----------------|
B|-8---------------|---------8-8-10-8-|-8-------------10-|---10----8-------|
G|-----------------|-------------7--7-|---------------7--|---7-----7-------|
D|-----------------|------------------|------------------|-----------------|
A|-----------------|------------------|------------------|-----------------|
E|-----------------|------------------|------------------|-----------------|
   1 + 2 + 3 + 4 +   1 + 2 + 3 + 4  +   1 + 2 + 3 + 4 +    1 + 2 + 3 + 4 +


[VERSE 2]
G            C9           G               D
Hours on the phone making pointless calls
        G            C9                G              D
I got a desk full of papers that means nothing at all
    Em7             C9   D           G
Sometimes I catch myself staring into space
Em7               C9           D              G
Counting down the hours 'til I get to see your face


[CHORUS]
G   C9
Hey Julie,
D                 C9
Look what they're doing to me
Em7               C9
Trying to trip me up
          D       G
Trying to wear me down
G        C9          D          C9
Julie, I swear, it's so hard to bear it
        Em7           C9           D       G
And I'd never make it through without you around
        Em7           C9           D       G
No I'd never make it through without you around


[BRIDGE]
*Em7
    How did it come to be
*Bm
    That you and I must be
*C9                    D
    Far away from each other every day?
*Em7
    Why must I spend my time
*Bm
    Filling up my mind
*C9
    With facts and figures that
D
Never add up anyway?
C9       C9
    They never add up anyway


[SOLO]
Guitar:
   G       C9           G       D         G       C9           G       D
e|-----7--------------|-------------3---|-----7--------------|-----------------|
B|-------8-10-8-------|-----------3-----|-------8-10-8-------|---------7-8-7---|
G|----------------7h9-|---7-----4-------|----------------7h9-|---7---0-------7-|
D|--------------------|-------5---------|--------------------|-----------------|
A|--------------------|-----------------|--------------------|-----------------|
E|--------------------|-----------------|--------------------|-----------------|
   1 + 2 + 3  + 4 +     1 + 2 + 3 + 4 +   1 + 2 + 3  + 4 +     1 + 2 + 3 + 4 +

    Em7    C9           D       G              Em7     C9         D      G
e|--------------------|----------------------|-----------------|------------------|
B|--------------------|----------------------|---3---3---0---0-|--5p3---3---------|
G|-----4---5----------|----------------------|-0---------------|------------------|
D|-------5-------5h7--|---5------------------|-----4---2---0---|------------5---5-|
A|--------------------|-------5-7-5----------|-----------------|------------------|
E|--------------------|-------------5h7p5----|-3---------------|------------------|
   1 + 2 + 3 + 4 +      1 + 2 + 3 + 4   +      1 + 2 + 3 + 4 +    1 + 2 + 3 + 4 +


Piano:
   G       C9        G       D           G       C9        G       D
e|-----7---8-7-----|---7--------7------|-----7---8-7-----|-----------------|
B|-------8-----8---|-------8-10---10-8-|-------8-----8---|---8-----8---7---|
G|-7-------------7-|-------------------|-7-------------7-|-------7---7-----|
D|-----------------|-------------------|-----------------|-----------------|
A|-----------------|-------------------|-----------------|-----------------|
E|-----------------|-------------------|-----------------|-----------------|
   1 + 2 + 3 + 4 +   1 + 2 + 3  + 4  +   1 + 2 + 3 + 4 +   1 + 2 + 3 + 4 +

   Em      C9        D       G           Em7     C9        D       G         G
e|-----7---8-7-----|---7--------7------|-----7---8-7-----|-----------------|---|
B|-------8-----8---|-------8-10---10-8-|-------8-----8---|---8-----8---7---|-8-|
G|-7-------------7-|-------------------|-7-------------7-|-------7---7-----|---|
D|-----------------|-------------------|-----------------|-----------------|---|
A|-----------------|-------------------|-----------------|-----------------|---|
E|-----------------|-------------------|-----------------|-----------------|---|
   1 + 2 + 3 + 4 +   1 + 2 + 3  + 4  +   1 + 2 + 3 + 4 +   1 + 2 + 3 + 4 +   1



[VERSE 3] 
G           C9        G           D
Working all day for a mean little guy
e|------------------|---------------------|---|
B|------------------|-------------3h5p3h5p|3--|
G|------------------|---------------------|---|
D|------------------|---------------------|---| (Guitar)
A|------------------|---------------------|---|
E|------------------|---------------------|---|

       G      C9        G            D
With a bad toupee and a soup-stained tie
            Em7                C9
He's got me running 'round the office
       D           G
Like a gerbil on a wheel
       Em7             C9
He can tell me what to do
             D               G
But he can't tell me what to feel


[CHORUS]
G   C9
Hey Julie,
D                 C9
Look what they're doing to me
Em7               C9
Trying to trip me up
          D       G
Trying to wear me down
G        C9          D          C9
Julie, I swear, it's so hard to bear it
        Em7           C9          D       G
And I'd never make it through without you around
        Em7           C9          D       G
No I'd never make it through without you around
        Em7           C9          D       G
No I'd never make it through without you around
_________________________________________________________________________________________________

[INTRO]
|G - C9 -|G - D -|G - C9 -|G - D -|

[VERSE 1]
|G - C9 -|G - D -|G - C9 -|G - D -|Em7 - C9 -|D - G -|Em7 - C9 -|D - G -|

[CHORUS]
|G - C9 -|D - C9 -|Em7 - C9 -|D - G -|G - C9 -|D - C9 -|Em7 - C9 -|D - G -|Em7 - C9 -|D - G -|

[PREVERSE]
|G - C9 -|G - D -|G - C9 -|D - G -|

[VERSE 2]
|G - C9 -|G - D -|G - C9 -|G - D -|Em7 - C9 -|D - G -|Em7 - C9 -|D - G -|

[CHORUS]
|G - C9 -|D - C9 -|Em7 - C9 -|D - G -|G - C9 -|D - C9 -|Em7 - C9 -|D - G -|Em7 - C9 -|D - G -|

[BRIDGE]
|*Em7 - - -|*Bm - - -|*C9 - - -|D - - -|*Em7 - - -|*Bm - - -|*C9 - - -|D - - -|C9 - - -|C9 - - -|

[SOLO]
|G - C9 -|G - D -|G - C9 -|G - D -|Em7 - C9 -|G - D -|Em7 - C9 -|G - D -|

[VERSE 3]
|G - C9 -|G - D -|G - C9 -|G - D -|Em7 - C9 -|D - G -|Em7 - C9 -|D - G -|

[CHORUS]
|G - C9 -|D - C9 -|Em7 - C9 -|D - G -|G - C9 -|D - C9 -|Em7 - C9 -|D - G -|
|Em7 - C9 -|D - G -|Em7 - C9 -|D - G -|
comments
print report bad tab
I want to post or [tab]
guest
You may want to rate the tab now too:
select rating
Please do not post tabs as comments. Select "correction" instead!