Oops, an error
Loading. Please wait.

Hotel Majestic Bass Tab

200 views 1 this week
no commentswrite comment
1 2 3 4 5
please rate
add to favorites
launch autoscroll
font size
0
reset
guitar tuner
Autoscroll
slow
fast
+/-
esc
set tempo
stop
Help us to improve Ultimate-Guitar.com Take our survey!
×
Contributor
Difficulty
intermediate
-------------------------------------------------------------------------------
			 HOTEL MAJESTIC - Fountains of Wayne
-------------------------------------------------------------------------------

Tabbed By : Mr MastodonFarm

Tuning: Standard

INTRO

G|----------------------------------------|
D|----------------------------------------|
A|-----------0-0-2-4-2-2-4-5-----4-5------| X 3
E|---0-0-2-3-----------------3-3----------|

G|-----------------------------|
D|-----------------------------|
A|-----------0-0-2-4-5---------|
E|---0-0-2-3-------------------|

VERSE

G|----------------------------------------|
D|----------------------------------------|
A|-----------0-0-2-4-2-2-4-5-----4-5------| X 3
E|---0-0-2-3-----------------3-3----------|

   "Trying to catch my breath..." [0:29]
G|--------------------------------|
D|--------------------------------|
A|--------------------------------|
E|---2222222233333333-------------|
 
   
VERSE X 3

BRIDGE
   "Dying to catch my death..."   [0:45]
G|--------------------------------|
D|--------------------------------|
A|--------------------------------|
E|---2222222233333333 3\12/3------|

 
  "We're doing this the hardest way..." [0:57]
G|-----------------------------|
D|-----------------------------|
A|-----------------------------|
E|---33332222-5555555----------|

   "Back at the Hotel Majestic..." [1:02]
G|--------------------------------|
D|-----------7777777------7777----|
A|---77777777---------7777--------|
E|--------------------------------|

 VERSE X 5

 BRIDGE

 VERSE X 3

 REST 

 BRIDGE

   "I wake up around 2 o'clock..."        [2:04]
G|-----------------------------------------------|
D|-----------------------------------------------|
A|---5-5-5--5-5-5--2-2-2--2-2-2------------------|
E|-------------------------------3-3-3--3-3-3----|

REPEAT VERSE UNTIL END


It's a really fun song. I did it all by ear, but I'm 99.9% sure its correct. Feedback is welcome

| /  slide up
| \  slide down
| h  hammer-on
| p  pull-off
| ~  vibrato
| +  harmonic
| x  Mute note
===============================================================================
Suggest correction new What's this?
You can suggest a correction to this tab. Community and Mods will review your correction and vote to approve or reject it.
comments
We did not receive enough feedback on this tab! Please rate:
print report bad tab
1 2 3 4 5
guest
You may want to rate the tab now too:
select rating
Please do not post tabs as comments. Select "correction" instead!