Oops, an error
Loading. Please wait.

Ive Got A Flair Bass Tab

469 views 3 this week
no commentswrite comment
1 2 3 4 5
3 more votes to show rating
add to favorites
launch autoscroll
font size
0
reset
guitar tuner
Autoscroll
slow
fast
+/-
esc
set tempo
stop
Help us to improve Ultimate-Guitar.com Take our survey!
×
Author
Verse:
G------------------------------------------------------------------|
D------------------------------------------------------------------|
A--3-3-3-3-3-3-3-3-------------------------------------------------|
E------------------0-0-0-0-0-0-0-0-1-1-1-1-1-1-1-1-1-1-1-1-1-1-1-1-|

G-----------------------------------------------------------------|
D-----------------------------------------------------------------|
A-----------------------------------------------------------------|
E--3-3-3-3-3-3-3-3-3-3-3-3-3-3-3-3--------------------------------|

Fill #1:
G-----------------------------------------------------------------|
D-----------------------------------------------------------------|
A--3-3-3-3-3-3-3-3-3-3-3-3-3-3-3-3--------------------------------|
E-----------------------------------------------------------------|

Fill #2:
G-----------------------------------------------------------------|
D-----------------------------------------------------------------|
A--0-0-0-0-0-0-0-0------------------------------------------------|
E------------------1-1-1-1-1-1-1-1--------------------------------|

Chorus:
G------------------------------------------------------------------|
D------------------------------------------------------------------|
A--0-0-0-0-0-0-0-0-0-0-0-0-0-0-0-0-5-5-5-5-5-5-5-5-5-5-5-5-5-5-5-5-|
E------------------------------------------------------------------|

G------------------------------------------------------------------|
D------------------------------------------------------------------|
A------------------------------------------------------------------|
E--1-1-1-1-1-1-1-1-1-1-1-1-1-1-1-1-0-0-0-0-0-0-0/3-3-3-3-3-3-3-3-3-|

Conclusion:
G-----------------------------------------------------------------|
D-----------------------------------------------------------------|
A--0-0-0-0-------------------------3*-----------------------------|
E----------3-3-3-3-1-1-1-1-3-3-3-3--------------------------------|

*end on a single C

Structure:
0:00	Verse	3x
0:52	Fill 1	1x
	Chorus	1x
1:07	Verse	2x
1:33	Fill 2	1x
	Chorus	1x
1:51      r-e-s-t
2:10	Verse	1x
2:21	Ending	6x
Suggest correction
Give kudos to tab author, rate the tab!
1 2 3 4 5
comments
print report bad tab
guest
You may want to rate the tab now too:
select rating
Wanna post a correction for this tab? Suggest correction