Oops, an error
Loading. Please wait.

Maureen Tab

version 1
version 1

Whole song

567 views 1 this week
no commentswrite comment
1 2 3 4 5
3 more votes to show rating
add to favorites
launch autoscroll
font size
0
reset
how to read this tab
guitar tuner
Autoscroll
slow
fast
+/-
esc
set tempo
stop
Help us to improve Ultimate-Guitar.com Take our survey!
×
Author
Difficulty
-------------------------------------------------------------------------------
                             Maureen - Fountains of Wayne
----------------------------------------------------------------------------

Intro


e|-0-0-0--0-0--0-0--0-0--0-0--0-0-----------------------------|
B|-9-9-10-9-10-9-10-9-10-9-10-9-9-----------------------------|
G|------------------------------------------------------------|
D|------------------------------------------------------------|
A|------------------------------------------------------------|
E|------------------------------------------------------------|

then

e|-x-x-x-x-------------------------------------------------------------|
B|-x-x-x-x-------------------------------------------------------------|
G|-9-6-7-x-------------------------------------------------------------|
D|-9-6-7-7-------------------------------------------------------------|
A|-7-4-5-7-------------------------------------------------------------|
E|-x-x-x-5-------------------------------------------------------------|

Thats all I've got for now, but it seems a lot of the song continues with some variation 
this progression.
Suggest correction
Give kudos to tab author, rate the tab!
1 2 3 4 5
comments
print report bad tab
guest
You may want to rate the tab now too:
select rating
Wanna post a correction for this tab? Suggest correction