Oops, an error
Loading. Please wait.

Sink To The Bottom Bass

version 1
version 1

Whole song

Interactive

1,293 views 1 this week
1 commentread comment
1 2 3 4 5
x 3
add to favorites
launch autoscroll
font size
0
reset
guitar tuner
Autoscroll
slow
fast
+/-
esc
set tempo
stop
Sink To The Bottom by Fountains of Wayne
Tabbed by Cody Westby

G----------------------------------------------------------------
D----------------------------------------------------------------
A-------------------4-4-4-4-4------------------------------------
E-0-0-0-0-4-4-4-4-4----------5-5-5-5-5-5-------------------------

That wasn't so hard, was it?

==========================================
Cody Westby, bassist of Mr. Jumbo
Suggest correction
Give kudos to tab author, rate the tab!
1 2 3 4 5
comments
print report bad tab
1 comment total.
0 reply
TheJesseNelson 10 Feb 15, 2013 09:51 PM

For where the chords are different, instead of:

G----------------------
D----------------------
A---4-4-4-4------------
E-----------5-5-5-5----

Do this:

G----------------------
D----------------------
A---3-3-3-3-5-5-5-5----
E----------------------

guest
Wanna post a correction for this tab? Suggest correction