Oops, an error
Loading. Please wait.
We have Chord Pro version of Stacys Mom.
It's the closest thing you can get to the original song and it has interactive parts. Check out the tab »
×
42,852 views 81 this week
3 commentsread comments
1 2 3 4 5
x 16
add to favorites
×
Save as Personal and add changes to this tab that will be seen only by you. Learn more ›
×
You can save this tab as Personal to edit and correct it or add notes. All changes will be seen only by you. Learn more »
launch autoscroll
font size
0
reset
guitar tuner
backing track
0:00
0:00
edit
Autoscroll
slow
fast
+/-
esc
set tempo
stop
Author
Fountains of Wayne - "Stacy's Mom"
Bass

Standard Tuning, 4/4 time

 (Come in with the vocals)

 [Intro] (Play 4x):
G|---------------------------------------------------------------------|
D|---------------------------------------------------------------------|
A|------------------6-7------------------------------------------------|
E|-0-0-0-5-5-5-5-5-7---5-5-5-5-5---------------------------------------|

Verse (Stacy can I come over):
G|--------------------------------|
D|--------------------------------|
A|------------------6-7-----------|x8
E|-0-0-0-5-5-5-5-5-7---5-5-5-5-5--|

[Pre-Chorus](You know I’m not the little boy…):
G|-----------------------------------------------------------|
D|-----------------------------------------------------------|
A|-----------------------------------------------------------|
E|-4-4-4-4-4-4-4-4-5-5-5-5-5-5-5-5-4-4-4-4-4-4-4-4-5-5-5-5-5-|

[Chorus] (Stacy’s Mom has got it goin’ on):
G|----------------------------------------------|
D|----------------------------------------------|
A|—-47-------------------47---------------------|
E|-5--0--007—-7779—-9—--5--0—-007—-7779—-9—-----|

G|------------------------------------------------------|
D|------------------------------------------------------|
A|--4-7-------------------------------------------------|
E|-5---0--0-0-8—-8-8-9-9—-9—--5-5-5-5-5-5-5-5-7-7-7-7-7-|

[Verse 2] (Intro): Don’t Play
[Verse 2] (Stacy do you remember when I mowed your lawn?)
G|--------------------------------|
D|--------------------------------|
A|------------------6-7-----------|x8
E|-0-0-0-5-5-5-5-5-7---5-5-5-5-5--|


[Pre-Chorus](You know I’m not the little boy…):
G|-----------------------------------------------------------|
D|-----------------------------------------------------------|
A|-----------------------------------------------------------|
E|-4-4-4-4-4-4-4-4-5-5-5-5-5-5-5-5-4-4-4-4-4-4-4-4-5-5-5-5-5-|

[Chorus] (Stacy’s Mom has got it goin’ on):
G|----------------------------------------------|
D|----------------------------------------------|
A|—-47-------------------47---------------------|
E|-5--0--007—-7779—-9—--5--0—-007—-7779—-9—-----|

G|------------------------------------------------------|
D|------------------------------------------------------|
A|--4-7-------------------------------------------------|
E|-5---0--0-0-8—-8-8-9-9—-9—--5-5-5-5-5-5-5-5-7-7-7-7-7-|

 [Guitar solo Part]
G|--------------------------------------------------------------|
D|--2-5--------------2--2---2-5---------------------------------|
A|-3---------5--5-5-3------3-----------2--2-2-2-2-2-2-2---------|
E|-----3--3-3-------------------3---3-3-------------------------|

G|----------------------------------------------------------------------|
D|--2-5-----------------------------------------------------------------|
A|-3---------5--5-5-6-7--7--3-3-3-3-3-3-3-3-2-2-2-2-2-2-2-2-------------|
E|-----3--3-3-----------------------------------------------------------|

 [Last Chorus] (Play 2x):
G|----------------------------------------------------|
D|--2-5---------------2--2---2-5-----------2---2------|
A|-3----------5--5-5-3------3---------5—553-----------|
E|------3--3-3------------------3--3-3----------------|

G|---------------------------------------------------------------------|
D|---2-5---------------------------------------------------------------|
A|-3----------5--5-5-6-7--7--3-3-3-3-3-3-3-3-5-5-5-5-5-5-5-5-----------|
E|------3--3-3---------------------------------------------------------|

Second time, only play the final note (5 on A) 7 times, instead of 8.
Suggest correction
Creating personal tab
Creating personal tab
You can edit any tab online and save it as your Personal.

You can edit, replace or remove any tab part or add personal notes – all changes will be seen only by you.

Personal tabs can be accessed anytime from any device, even offline.
Learn more »
comments
print report bad tab
3 comments total.
0 reply
urnevab4me 10 Apr 23, 2004 08:00 PM

dude this is supposed to be a bass tab... only half of it is bass the rest is guitar like wat the hell.

0 reply
saturns_bassman 789 Aug 04, 2004 08:00 PM

yea whats up with that

0 reply
saturns_bassman 789 Apr 13, 2005 08:00 PM

the intro and verse should kinda go like this when the guitars hit that high E on the D

G-----------------------
D-----------------------
A----------67------7----
E-000555557--55555------
i just was messin with this tab and figured this out i think it helps a lot out with the song

guest
You may want to rate the tab now too:
select rating
Wanna post a correction for this tab? Suggest correction