Oops, an error
Loading. Please wait.

Stacys Mom Tab

version 6
9,383 views 9 this week
no commentswrite comment
1 2 3 4 5
accurate
x 5
add to favorites
launch autoscroll
font size
0
reset
how to read this tab
guitar tuner
Autoscroll
slow
fast
+/-
esc
set tempo
stop
Help us to improve Ultimate-Guitar.com Take our survey!
×
Author
-------------------------------------------------------------------------------
                             Stacys Mom by Fountains of Wayne
-------------------------------------------------------------------------------
Tabbed by: Comfy2012
E-mail: comfortable2012@aol.com

Tuning: Standard

e|----------------------------|
B|----------------------------|
G|----------------------------|Intro x2
D|------------1-2----2--------|
A|-----00000-2---0000---------|
E|-000------------------------|

Stacys mom has got it going on
e|----------------------------|
B|----------------------------|
G|----------------------------|x4
D|------------1-2----2--------|
A|-----00000-2---0000---------|
E|-000------------------------|

Stacy, can I come over after school? (After school?)
We can hang around by the p-p-p-po-o-o-o-ol (Hang by the pool.)
Did your mom get back from her business trip? (Business trip?)
Is she there or is she tryna give me the sli-i-i-i-ip? (Give me the slip?)
e|----------------------------|         e|----------------------------|
B|----------------------------|         B|----------------------------|
G|----------------------------|x8 or    G|----------------------------| x8
D|------------1-2----2--------|         D|----------------------------|
A|-----00000-2---0000---------|         A|-----00000-222-00000--------|
E|-000------------------------|         E|-000------------------------|

You know Im not the little boy that I used to be,
Im all grown up now, baby cant you see?
e|--44444444-55555555-44444444-55555------|
B|--44444444-55555555-44444444-55555------|
G|--44444444-66666666-44444444-66666------|
D|--66666666-77777777-66666666-77777------|
A|--66666666-77777777-66666666-77777------|
E|--44444444-55555555-44444444-55555------|

Stacys mom has got it goin on
Shes all I want, and Ive waited for so long
e|-000--0000--2222--4444--|
B|-222--0000--4444--5555--|
G|-222--1111--4444--6666--|
D|-222--2222--4444--6666--|
A|-000--2222--2222--4444--|
E|-XXX--0000--XXXX--XXXX--|

Stacy cant you see youre just not the girl for me?
e|-000--0000--4444--4444--|
B|-222--0000--4444--5555--|
G|-222--1111--5555--6666--|
D|-222--2222--4444--6666--|
A|-000--2222--6666--4444--|
E|-XXX--0000--4444--4444--|

I know it might be wrong, but Im in love with Stacys mom
e|-00000000--22222222----|
B|-22222222--44444444----|
G|-22222222--44444444----|
D|-22222222--44444444----|
A|-00000000--22222222----|
E|-XXXXXXXX--XXXXXXXX----|

Stacys mom has got it going on
e|----------------------------|
B|----------------------------|
G|----------------------------|x2
D|------------1-2----2--------|
A|-----00000-2---0000---------|
E|-000------------------------|


Stacy, do you remember when I mowed your lawn? (Mowed your lawn)
Your mom came out with just a towel o-o-o-o-on. (Towel on)
I can tell she liked me from the way she stared. (Way she stared)
And the way she said You missed a spot over the-e-e-e-ere. (Spot over there)
e|---0---0---2---0------0---0---2---0---|
B|--0-0-2-2-4-4-2-2----0-0-2-2-4-4-2-2--|
G|-1---2---4---2------1---2---4---2-----| x4
D|--------------------------------------|
A|--------------------------------------|
E|--------------------------------------|

And I know that you think its just a fantasy,
But since your dad walked out your mom could use a guy like me.
e|--44444444-55555555-44444444-55555-----------|
B|--44444444-55555555-44444444-55555-----------|
G|--44444444-66666666-44444444-66666-----------|
D|--66666666-77777777-66666666-77777-----------|
A|--66666666-77777777-66666666-77777-----------|
E|--44444444-55555555-44444444-55555-----------|

Stacys mom has got it goin on
Shes all I want, and Ive waited for so long
e|-000--0000--2222--4444--|
B|-222--0000--4444--5555--|
G|-222--1111--4444--6666--|
D|-222--2222--4444--6666--|
A|-000--2222--2222--4444--|
E|-XXX--0000--XXXX--XXXX--|

Stacy cant you see youre just not the girl for me?
e|-000--0000--4444--4444--|
B|-222--0000--4444--5555--|
G|-222--1111--5555--6666--|
D|-222--2222--4444--6666--|
A|-000--2222--6666--4444--|
E|-XXX--0000--4444--4444--|

I know it might be wrong, but Im in love with Stacys mom
e|-00000000--22222222----|
B|-22222222--44444444----|
G|-22222222--44444444----|
D|-22222222--44444444----|
A|-00000000--22222222----|
E|-XXXXXXXX--XXXXXXXX----|

e|---------------------------------------------------------------------------|
B|---------------------------------------------------------------------------|
G|--5-7/9-7-4---------------------5-7/9-7-4---4h5p4h5p4h5p4h5-(or-bend)------|
D|------------5-7-7-7-5/9-7-5---------------5--------------------------------|
A|---------------------------------------------------------------------------|
E|---------------------------------------------------------------------------|

e|---------------------------------------------------------------------------|
B|---------------------------------------------------------------------------|
G|--5-7/9-7-4---------------------4h5p4h5p4h5p4h5-8h9p8h9p8h9p8h9-(or-bend)--|
D|------------5-7-7-7-5/9-7-5------------------------------------------------|
A|---------------------------------------------------------------------------|
E|---------------------------------------------------------------------------|

Stacys mom has got it goin on (shes got it goin on)
Shes all I want, and Ive waited for so long (waitin and waitin)
e|-000--3333--2222--0000--|
B|-111--3333--3333--0000--|
G|-000--0000--2222--0000--|
D|-222--0000--0000--2222--|
A|-333--2222--XXXX--2222--|
E|-XXX--3333--XXXX--0000--|

Stacy cant you see youre just not the girl for me?
e|-000--3333--2222--0000--|
B|-111--3333--0000--0000--|
G|-000--0000--2222--0000--|
D|-222--0000--1111--2222--|
A|-333--2222--2222--2222--|
E|-XXX--3333--XXXX--0000--|

I know it might be wrong, but Im in love with--
e|-00000000--22222222----|
B|-11111111--33333333----|
G|-00000000--22222222----|
D|-22222222--00000000----|
A|-33333333--XXXXXXXX----|
E|-XXXXXXXX--XXXXXXXX----|

Stacys mom o-o-o-o (Im in love with)
Stacys mom o-o-o-o (wait a minute)
e|-000--3333--2222--0000--|
B|-111--3333--3333--0000--|
G|-000--0000--2222--0000--|
D|-222--0000--0000--2222--|
A|-333--2222--XXXX--2222--|
E|-XXX--3333--XXXX--0000--|

Stacy cant you see youre just not the girl for me?
e|-000--3333--2222--0000--|
B|-111--3333--0000--0000--|
G|-000--0000--2222--0000--|
D|-222--0000--1111--2222--|
A|-333--2222--2222--2222--|
E|-XXX--3333--XXXX--0000--|

I know it might be wrong, but Im in love with Stacys mom
e|-00000000--2222222-----|
B|-11111111--3333333-----|
G|-00000000--2222222-----|
D|-22222222--0000000-----|
A|-33333333--XXXXXXX-----|
E|-XXXXXXXX--XXXXXXX-----|


************************************

| /   slide up
| \   slide down
| h   hammer-on
| p   pull-off
| ~   vibrato
| +   harmonic
| x   Mute note
| b   Bend
| pb  Pre-bend
| br  Bend release
| pbr Pre-bend release
| brb Bend release bend

************************************
Suggest correction
comments
print report bad tab
guest
You may want to rate the tab now too:
select rating
Wanna post a correction for this tab? Suggest correction