Oops, an error
Loading. Please wait.

Socks And Shoes Bass Tab

114 views 1 this week
no commentswrite comment
1 2 3 4 5
3 more votes to show rating
add to favorites
launch autoscroll
font size
0
reset
guitar tuner
Autoscroll
slow
fast
+/-
esc
set tempo
stop
Help us to improve Ultimate-Guitar.com Take our survey!
×
Difficulty
intermediate
-----------------------------------------------------------------
Socks and Shoes - Four Fifty One
-----------------------------------------------------------------

Tabbed By : Chris Kessler	
e-mail: Chrikess@hotmail.com

Tuning: Standard 

G|------------------------2---0-----------2-------------2--------|
D|-------2-4---2-4-0--------4---2---0-0-0---4-4/7-0-0-0---4-4/7--|
A|-----2-----0---------------------------------------------------|   
E|-10/-----------------------------------------------------------|

G|------------------2---0-----------2-------------2--------------|
D|---2-4---2-4-0------4---2---0-0-0---4-4/7-0-0-0---4-4/7--------|
A|-2-----0-------------------------------------------------------|
E|---------------------------------------------------------------|

G|-----------------2---0--------2-2-4-4----------2-2-4-4---------|
D|---2-4---2-4-0-----4---2--0-0---------4202-0-0---------4202----|
A|-2-----0-------------------------------------------------------|
E|---------------------------------------------------------------|

G|-------------------2---0---------2-2-4-4----------2-2-4-4------|          
D|---2-4---2-4-0-------4---2---0-0---------4202-0-0---------4202-|          
A|-2-----0-------------------------------------------------------|          
E|---------------------------------------------------------------|            

G|-------------------2---0----------------------2----2-----------|
D|---2-4---2-4-0-------4---2--0-0-0-0-2-2-2-2--------------0-----|
A|-2-----0------------------------------------0---00---0-2-------|
E|---------------------------------------------------------------|

G|-----------------2----------------------------2----2-----------|
D|-0-0-0-0-2-2-2-2---------0-0-0-0-0-2-2-2-2--------------0------|
A|---------------------0-2--------------------0---00---0-2-------|
E|---------------------------------------------------------------|

G|-----------------2---------------------------------------------|
D|-0-0-0-0-2-2-2-2-----------------------------------------------|
A|---------------------------------------------------------------|
E|---------------------------------------------------------------|



| /  slide up
| \  slide down
| h  hammer-on
| p  pull-off
| ~  vibrato
| +  harmonic
| x  Mute note

1.Repeat these 7 measures 2 times, the first time include the slide from 10,  
  and the intro. Play through one time after, discluding the slide and intro.
  Half of the next verse, and then bridge is to be played after this. I will send
  the next tab. 
Suggest correction
Give kudos to tab author, rate the tab!
1 2 3 4 5
comments
print report bad tab
guest
You may want to rate the tab now too:
select rating
Wanna post a correction for this tab? Suggest correction