Oops, an error
Loading. Please wait.

Camellia Tab

49 views 1 this week
no commentswrite comment
1 2 3 4 5
please rate
add to favorites
launch autoscroll
font size
0
reset
how to read this tab
guitar tuner
Autoscroll
slow
fast
+/-
esc
set tempo
stop
Help us to improve Ultimate-Guitar.com Take our survey!
×
Author
Difficulty
Tuning
intermediate
D G C F A D
Tabbed By: Sean Wallner
Band: Four Minute Mile
Song: Camellia
Album: Bridges/Streetlights
Label: Better Days Records
Tuning: D Standard (DGCFAD)


Intro:                                                                    X2
d|-------------------------------------------------------------------------|
a|-0-00-000-0-00-000-0-00-000-0-00-000-0-00-000-0-00-000-0-00-000-0-00-000-|
f|-8-88-888-1-11-111-4-44-444-4-44-444-1-11-111-2-22-222-1-11-111-2-22-222-|
c|-9-99-999-2-22-222-6-66-666-4-44-444-2-22-222-2-22-222-2-22-222-2-22-222-|
g|-7-77-777-0-00-000-4-44-444-2-22-222-0-00-000-0-00-000-0-00-000-0-00-000-|
D|-------------------------------------------------------------------------|
                                                                          X2
d|-------------------------------------------------------------------------|
a|-------------------------------------------------------------------------|
f|-------------------------------------------------------------------------|
c|-------------------------------------------------------------------------|
g|-------------------------------------------------------------------------|
D|-------------------------------------------------------------------------|




Post-Intro:                              X1
d|----------------------------------------|
a|----------------------------------------|
f|----------------------------------------|
c|-2~~~~~~~~~~~~~~~~~~2~~~~~~~~~~~~~~~~~~-|
g|-2~~~~~~~~~~~~~~~~~~2~~~~~~~~~~~~~~~~~~-|
D|-0~~~~~~~~~~~~~~~~~~0~~~~~~~~~~~~~~~~~~-|
                                         X1
d|----------------------------------------|
a|----------------------------------------|
f|----------------------------------------|
c|-2~~~~~~~~~~~~~~~~~~2~~~~~~~~~~~~~~~~~~-|
g|-2~~~~~~~~~~~~~~~~~~2~~~~~~~~~~~~~~~~~~-|
D|-0~~~~~~~~~~~~~~~~~~0~~~~~~~~~~~~~~{{{{-|
                      



Pre-Verse:                                                                      X1
d|-------------------------------------------------------------------------------|
a|-00-0-0-0-00-0-0-0-00-0-0-0-00-0-0-0-0-000-0-0-0-0-000-0-0-0-00-0-0-0-00-0-0-0-|
f|-88-8-8-8-88-8-8-8-44-4-4-4-44-4-4-4-1-111-1-1-1-1-111-1-1-1-44-4-4-4-44-4-4-4-|
c|-99-9-9-9-99-9-9-9-66-6-6-6-44-4-4-4-2-222-2-2-2-2-222-2-2-2-66-6-6-6-44-4-4-4-|
g|-77-7-7-7-77-7-7-7-44-4-4-4-22-2-2-2-0-000-0-0-0-0-000-0-0-0-44-4-4-4-22-2-2-2-|
D|-------------------------------------------------------------------------------|
                                         ***         ***                        X1
d|---------------------------------------------5~4~-----5~4~----7~~5~~4~~4h5~4~--|
a|-4h5~~5~5~5~4h5~~7~7~7~4h5~~5~5~5~4h5~~7~7~7~---7~5~5~---7~5~5~-------------7~-|
f|-------------------------------------------------------------------------------|
c|-------------------------------------------------------------------------------|
g|-------------------------------------------------------------------------------|
D|-------------------------------------------------------------------------------|

                                                                                     X1
d|---------------------------------------------------0~~------------------------------|
a|-00-0-0-0-00-0-0-0-00-0-0-0-00-0-0-0-00-0-00-0-00-0-0~00-0-0-0-00-0-0-0-0~~~0~~~----|
f|-88-8-8-8-88-8-8-8-44-4-4-4-44-4-6-4-11-1-11-1-11-1---44-4-4-4-44-4-4-4-1~~~1h2~----|
c|-99-9-9-9-99-9-9-9-66-6-6-6-44-4-6-4-22-2-22-2-22-2---66-6-6-6-44-4-4-4-2~~~2~~~----|
g|-77-7-7-7-77-7-7-7-44-4-4-4-22-2-4-2-00-0-00-0-00-0---44-4-4-4-22-2-2-2-0~~~0~~~----|
D|------------------------------------------------------------------------------------|
                                       ** * ** * ** *                                    X1
d|---------------------------------------------5~4~-----5~4~----7~~5~~4~~4h5~4~-----------|
a|-4h5~~5~5~5~4h5~~7~7~7~4h5~~5~5~5~4h5~~7~7~7~---7~5~5~---7~5~5~-------------7~5~~4h5~~--|
f|----------------------------------------------------------------------------------------|
c|----------------------------------------------------------------------------------------|
g|----------------------------------------------------------------------------------------|
D|------------------------------------------------------------------------------------{{{-|




Verse:                                                              X2
d|-------------------------------------------------------------------|
a|-------------------------------------------------------------------|
f|-------------------------------------------------------------------|
c|-----9996------------9996------------9996------------9996----6h777-|
g|-0000-----77777770000-----7777777---------7777777---------777------|
D|---------------------------------9999------------7777--------------|
   ******** *************** *************** *************** ***     X1
d|-------------------------------------------------------------------|
a|-------------------------------------------------------------------|
f|-11111111-111111111111111-111111144444444-444444444444444-44444444-|
c|-22222222-222222222222222-222222266666666-666666644444444-44444444-|
g|-00000000-000000000000000-000000044444444-444444422222222-22222222-|
D|-------------------------------------------------------------------|
   ******** *************** *************** *************** ********



Pre-Chorus:      X1
d|----------------|
a|----------------|
f|---1b~~~~~2~~~--|
c|--2~~~~~~2~~~~--|
g|-0~~~~~~0~~~~~--|
D|----------------|
                 X1
d|----------------|
a|----------------|
f|---1b~~~~~2~~~--|
c|--2~~~~~~2~~~~--|
g|-0~~~~~~0~~~~~--|
D|----------------|




Chorus:                                                                   X1
d|-------------------------------------------------------------------------|
a|-0-00-000-0-00-000-0-00-000-0-00-000-0-00-000-0-00-000-0-00-000-0-00-----|
f|-8-88-888-1-11-111-4-44-444-4-44-444-1-11-111-2-22-222-1-11-111-2-22-xxx-|
c|-9-99-999-2-22-222-6-66-666-4-44-444-2-22-222-2-22-222-2-22-222-2-22-xxx-|
g|-7-77-777-0-00-000-4-44-444-2-22-222-0-00-000-0-00-000-0-00-000-0-00-xxx-|
D|-------------------------------------------------------------------------|
                                                                          X1
d|-------------------------------------------------------------------------|
a|-0-00-000-0-00-000-0-00-000-0-00-000-0-00-000-0-00-000-0-00-000-0-00-000-|
f|-8-88-888-1-11-111-4-44-444-4-44-444-1-11-111-2-22-222-1-11-111-2-22-222-|
c|-9-99-999-2-22-222-6-66-666-4-44-444-2-22-222-2-22-222-2-22-222-2-22-222-|
g|-7-77-777-0-00-000-4-44-444-2-22-222-0-00-000-0-00-000-0-00-000-0-00-000-|
D|-------------------------------------------------------------------------|

                                                                          X1
d|-------------------------------------------------------------------------|
a|---12~~~~10~~~~~~~~~~9~~~~~~7~~~~~~~~---5~~~~~~~5~~~~~~~~5~~~~~~~~5~~~~~-|
f|-----9~~~~~~9h11p9~~~~~9~~~~~~9~~~~~~-----4~~~~~~~~4~~~~~~~~4~~~~~~~4~~~-|
c|-9~~~~~9~~~9~~~~~~~9~~~~~9~~~~~~7~~~~76~~~~~~67~~~~~~~76~~~~~~~67~~~~~~7-|
g|-------------------------------------------------------------------------|
D|-------------------------------------------------------------------------|
                                                                          X1
d|-------------------------------------------------------------------------|
a|-0-00-000-0-00-000-0-00-000-0-00-000-0-00-000-0-00-000-0-00-000-0-00-000-|
f|-8-88-888-1-11-111-4-44-444-4-44-444-1-11-111-2-22-222-1-11-111-2-22-222-|
c|-9-99-999-2-22-222-6-66-666-4-44-444-2-22-222-2-22-222-2-22-222-2-22-222-|
g|-7-77-777-0-00-000-4-44-444-2-22-222-0-00-000-0-00-000-0-00-000-0-00-000-|
D|-------------------------------------------------------------------------|




Post-Chorus:                         X2
d|------------------------------------|
a|------------------------------------|
f|----4~~~~~4~~~~~~~~~~8~~~~----------|
c|------6~~~~~6~~~6/~~~~~9~~~---6b~~--|
g|-4~~~~~~4~~~~~4~~/7~~~~~~7~0~~~~~~0-|
D|------------------------------------|
                                     X1                                   X1
d|------------------------------------|------------------------------------|
a|-0~~~~~~~~~~~~~~~~~~~~~~~~~~~~~~~~~-|-0-00~~~~---------------------------|
f|-4~~~~~~~~~~~~~~~~~~~~~~~~~~~~~~~~~-|-4-44~~\\-----------------------1~~-|
c|-6~~~~~~~~~~~~~~~~~~~~~~~~~~~~~~~~~-|-6-66~~\\-----------------------2~~-|
g|-4~~~~~~~~~~~~~~~~~~~~~~~~~~~~~~~~~-|-4-44~~\\-----------------------0~~-|
D|------------------------------------|------------------------------------|
                                                                       *
                                     X1                                   X1
d|------------------------------------|------------------------------------|
a|------------------------------------|---------------------------000~000~-|
f|----4~~~~~4~~~~~~~~~~8~~~~----------|----4~~~~~4~~~~~~~~~~8~~~~-111~222~-|
c|------6~~~~~6~~~6/~~~~~9~~~---6b~~~-|------6~~~~~6~~~6/~~~~~9~~~222~222~-|
g|-4~~~~~~4~~~~~4~~/7~~~~~~7~0~~~~~~0-|-4~~~~~~4~~~~~4~~/7~~~~~~7~000~000~-|
D|------------------------------------|------------------------------------|
                                     X1                           **  **  X1
d|------------------------------------|------------------------------------|
a|-0-00-00000000000-0-00-000-0-00-000-|-0-00-00000000000-0-00-000-000~000~-|
f|-4-44-44444444444/8-88-888\1-11-111-|-4-44-44444444444/8-88-888\111~222~-|
c|-6-66-66666666666/9-99-999\2-22-222-|-6-66-66666666666/9-99-999\222~222~-|
g|-4-44-44444444444/7-77-777\0-00-000-|-4-44-44444444444/7-77-777\000~000~-|
D|------------------------------------|------------------------------------|
                                                                  **  **



Bridge:                                              X1
d|----------------------------------------------------|
a|-0~~~--0~~~~-0~~~--0~~~~-0~~~--0~~~~----------------|
f|-4~~~x-1~~~~-4~~~x-1~~~~-4~~~x-1~~~~---8~~~-----4~~-|
c|-6~~~x-2~~~~-6~~~x-2~~~~-6~~~x-2~~~~-----9~---4~~4~-|
g|-4~~~0-0~~~~-4~~~0-0~~~~-4~~~0-0~~~h4/7~~~\2~~~~~~~-|
D|----------------------------------------------------|
       *           *           *                     X1
d|----------------------------------------------------|
a|-0--------------------------------------------------|
f|-4\\\-----------------------------------------------|
c|-6\\\-----------------------------------------------|
g|-4\\\-----------------------------------------------|
D|----------------------------------------------------|

                                                       X1
d|------------------------------------------------------|
a|-0~~~--0~~~~-0~~~--0~~~~-0~~~--0~~~~------------------|
f|-4~~~x-1~~~~-4~~~x-1~~~~-4~~~x-1~~~~--------------1b~-|
c|-6~~~x-2~~~~-6~~~x-2~~~~-6~~~x-2~~~~---6------2~~~~~~-|
g|-4~~~0-0~~~~-4~~~0-0~~~~-4~~~0-0~~~~-4~~~4~~0~~~0~~~~-|
D|------------------------------------------------------|
       *           *           *                       X1
d|------------------------------------------------------|
a|-0~~~~-0~~~~-0~~~~-0~~~~-0~~~~-0~~~~------------------|
f|-4~~~~-1~~1b~4~~~~-1~~1b~4~~~~-1~~1b~--------11111111-|
c|-6~~~~-2~2~~-6~~~~-2~2~~-6~~~~-2~2~~-4444444422222222-|
g|-4~~~~-0~~~~-4~~~~-0~~~~-4~~~~-0~~~~-4444444400000000-|
D|-------------------------------------22222222---------|
                                       ****************



Pre-Chorus 2:                                        X1
d|----------------------------------0~0000000/0000000-|
a|-5--5555----5--5555----5--5555----5~5555555/7777777-|
f|-4~~4444----4~~4444----4~~4444----------------------|
c|-6~~6666----6~~6666----6~~6666----------------------|
g|-4~~4444----4~~4444----4~~4444----------------------|
D|----------------------------------------------------|
                                                     X1
d|----------------------------------------------------|
a|----------------------------------0~000000000000000-|
f|-4~~4444----4~~4444----4~~4444----1~111111144444444-|
c|-6~~6666----6~~6666----6~~6666----2~222222244444444-|
g|-4~~4444----4~~4444----4~~4444----0~000000022222222-|
D|----------------------------------------------------|

                      X3                  X1
d|-----------7~5~4h5p4-|-0~000000/0/0000\0-|
a|-5--55554h5----------|-5~555555/7/9999\7-|
f|-4~~4444-------------|-------------------|
c|-6~~6666-------------|-------------------|
g|-4~~4444-------------|-------------------|
D|---------------------|-------------------|
                                                     X1
d|----------------------------------------------------|
a|----------------------------------0~000000000000000-|
f|-4~~4444----4~~4444----4~~4444----1~111111144444444-|
c|-6~~6666----6~~6666----6~~6666----2~222222244444444-|
g|-4~~4444----4~~4444----4~~4444----0~000000022222222-|
D|----------------------------------------------------|




Chorus:                                                                   X1
d|-------------------------------------------------------------------------|
a|-0-00-000-0-00-000-0-00-000-0-00-000-0-00-000-0-00-000-0-00-000-0-00-----|
f|-8-88-888-1-11-111-4-44-444-4-44-444-1-11-111-2-22-222-1-11-111-2-22-xxx-|
c|-9-99-999-2-22-222-6-66-666-4-44-444-2-22-222-2-22-222-2-22-222-2-22-xxx-|
g|-7-77-777-0-00-000-4-44-444-2-22-222-0-00-000-0-00-000-0-00-000-0-00-xxx-|
D|-------------------------------------------------------------------------|

d|-------------------------------------------------------------------------|
a|-0-00-000-0-00-000-0-00-000-0-00-000-0-00-000-0-00-000-0-00-000-0-00-000-|
f|-8-88-888-1-11-111-4-44-444-4-44-444-1-11-111-2-22-222-1-11-111-2-22-222-|
c|-9-99-999-2-22-222-6-66-666-4-44-444-2-22-222-2-22-222-2-22-222-2-22-222-|
g|-7-77-777-0-00-000-4-44-444-2-22-222-0-00-000-0-00-000-0-00-000-0-00-000-|
D|-------------------------------------------------------------------------|

                                                                          X1
d|-------------------------------------------------------------------------|
a|---12~~~~10~~~~~~~~~~9~~~~~~7~~~~~~~~---5~~~~~~~5~~~~~~~~5~~~~~~~~5~~~~~-|
f|-----9~~~~~~9h11p9~~~~~9~~~~~~9~~~~~~-----4~~~~~~~~4~~~~~~~~4~~~~~~~4~~~-|
c|-9~~~~~9~~~9~~~~~~~9~~~~~9~~~~~~7~~~7-6~~~~~~67~~~~~~~76~~~~~~~67~~~~~~7-|
g|-------------------------------------------------------------------------|
D|-------------------------------------------------------------------------|
                                                                          X1
d|-------------------------------------------------------------------------|
a|-0-00-000-0-00-000-0-00-000-0-00-000-0-00-000-0-00-000-0-00-000-0-00-000-|
f|-8-88-888-1-11-111-4-44-444-4-44-444-1-11-111-2-22-222-1-11-111-2-22-222-|
c|-9-99-999-2-22-222-6-66-666-4-44-444-2-22-222-2-22-222-2-22-222-2-22-222-|
g|-7-77-777-0-00-000-4-44-444-2-22-222-0-00-000-0-00-000-0-00-000-0-00-000-|
D|-------------------------------------------------------------------------|

            X1
d|-----------|
a|-5~~~~~~~~-|
f|-4~~~~~~~~-|
c|-6~~~~~~~~-|
g|-----------|
D|-----------|
            X1
d|-----------|
a|-0~~~~~~~~-|
f|-1~~~~~~~~-|
c|-2~~~~~~~~-|
g|-0~~~~~~~~-|
D|-----------|




Outro:                                        X1
d|--0-0-0-0-0-0-0-0-00000000-00000000-00000000-|
a|-1212121212121212\55555555/77777777/99999999-|
f|---------------------------------------------|
c|---------------------------------------------|
g|---------------------------------------------|
D|---------------------------------------------|
                                      X1
d|-------------------------------------|
a|-00000000-00000000-00000000-00000000-|
f|-88888888-44444444-44444444-11111111-|
c|-99999999-66666666-44444444-22222222-|
g|-77777777-44444444-22222222-00000000-|
D|-------------------------------------|

                                                    X1
d|--0-0-0-0-0-0-0-0--0-0-0-0-0000-00000000-000-0~~~~-|
a|-1212121212121212\10101010\9999\77777777\444/5~~~~-|
f|---------------------------------------------------|
c|---------------------------------------------------|
g|---------------------------------------------------|
D|---------------------------------------------------|
                                      X1
d|-------------------------------------|
a|-00000000-00000000-00000000-0000~~~~-|
f|-88888888-44444444-44444444-1112~~~~-|
c|-99999999-66666666-44444444-2222~~~~-|
g|-77777777-44444444-22222222-0000~~~~-|
D|-------------------------------------|



So much for sleeping tonight, 
I haven't been myself for days
Lost again without a trace, 
and no one could do a thing
To make these streetlights burn much brighter
But I can burn every fucking bridge, 
and just leave it all behind me

Tie me down and don't hope that I won't break away
Don't be afraid to see all of the things I portray
Tie me down cause I know what it takes to be brave
I'm not as selfish as the world has taught me to be

So sick, I'm so sick
I'll do my best to fall apart this year, 
and shed whats left
Of all my old self again, 
and we can pretend that we're friends
Just let me go, 
just let me

So sick, so sick I can't do this 
(By myself)
I would've walked away if I knew this

I'd walk away from it all,
Before my thirst for blood, 
Makes me sink like a stone
Please please please just pick me back up

Because I'm fed up

Don't let,
Me fall back
You know its hard to keep me running
I'm getting sick, 
Just like I said
and I never took a chance, 
so will it ever leave my head?

So sick, I'm so sick
I'll do my best to fall apart this year, 
and shed whats left
Of all my old self again, 
and we can pretend that we're friends
Just let me go, 
just let me go








d|----------|
a|----------|
f|- SEAN'S -|
c|- GUITAR -|
g|----------|
D|----------|
 |
d|--------------|
a|--------------|
f|---- 2nd  ----|
c|--- GUITAR ---|
g|--------------|
D|--------------|

TAB KEY
____________________
~ = Let Note Ring   |
                    |
` = Tremelo Picking |
                    |
\ = Slide Down Neck |
                    |
/ = Slide Up Neck   |
                    |
h = Hammer On       |
                    |
p = Pull Off        |
                    |
b = Bend String     |
                    |
x = chugs           |
                    |
* = Palm Mute       |
                    |
{ = Pick Scrape     |
____________________|
Suggest correction
Give kudos to tab author, rate the tab!
1 2 3 4 5
comments
print report bad tab
guest
You may want to rate the tab now too:
select rating
Please do not post tabs as comments. Select "correction" instead!