Oops, an error
Loading. Please wait.

Grey Tab

39 views 1 this week
no commentswrite comment
1 2 3 4 5
please rate
add to favorites
launch autoscroll
font size
0
reset
how to read this tab
guitar tuner
Autoscroll
slow
fast
+/-
esc
set tempo
stop
Help us to improve Ultimate-Guitar.com Take our survey!
×
Contributor
Difficulty
Tuning
SeanW82 142
intermediate
D G C F A D
Tabbed By: Sean Wallner
Band: Four Minute Mile
Song: Grey
Album: Bridges/Streetlights
Label: Better Days Records
Tuning: D Standard (DGCFAD)



Intro:      X1
d|-----------|
a|-----------|
f|-666---999-|
c|-666---999-|
g|-444---777-|
D|-----------|
            X1
d|-----------|
a|-----------|
f|-----------|
c|-----------|
g|-----------|
D|-----------|




Pre-Verse:                                                          X1
d|-00-0-0-000-0-0-000-0-0-0----------00-0-0-000-0-0-00---000-0---000-|
a|-00-0-0-000-0-0-000-0-0-0----------00-0-0-000-0-0-00---000-0---000-|
f|-66-6-6-644-4-4-499-9-9-9----------66-6-6-644-4-4-42222222-2222222-|
c|-66-6-6-644-4-4-499-9-9-9777-777-7-66-6-6-644-4-4-42222222-2222222-|
g|-44-4-4-422-2-2-277-7-7-7777-777-7-44-4-4-422-2-2-20000000-0000000-|
D|-------------------------455-455-5---------------------------------|
                                                      ***     ***   X1
d|-00-0-0-000-0-0-000-0-0-0000-000-0-00-0-0-000-0-0-000-0-0-000-0-00-|
a|-55-5-5-577-7-7-799-9-9-9101010101055-5-5-577-7-7-755-5-5-555-5-55-|
f|-------------------------------------------------------------------|
c|-------------------------------------------------------------------|
g|-------------------------------------------------------------------|
D|-------------------------------------------------------------------|

                                                        X1
d|-00-0-0-000-0-0-000-0-0-0----------00-0-0-000-0-0-0----|
a|-00-0-0-000-0-0-000-0-0-0----------00-0-0-000-0-0-0----|
f|-66-6-6-644-4-4-499-9-9-9----------66-6-6-644-4-4-4----|
c|-66-6-6-644-4-4-499-9-9-9677-677-7-66-6-6-644-4-4-42~~-|
g|-44-4-4-422-2-2-277-7-7-7677-677-7-44-4-4-422-2-2-22~~-|
D|-------------------------455-455-5-----------------0~~-|
                                                        X1
d|-00-0-0-000-0-0-000-0-0-0000-000-0-00-0-0-000-0-0-00~~-|
a|-55-5-5-577-7-7-799-9-9-9121212121255-5-5-544-4-4-45~~-|
f|-------------------------------------------------------|
c|-------------------------------------------------------|
g|-------------------------------------------------------|
D|-------------------------------------------------------|


Pre-Verse cont: X1
d|---------------|
a|---------------|
f|---------------|
c|~2~~~~~~~~~~~~-|
g|~2~~~~~~~~~~~~-|
D|~0~~~~~~~~~~~~-|
   *            X1
d|-0~~~~~~~~~~~~-|
a|-5~~~~~~~~~~~~-|
f|---------------|
c|---------------|
g|---------------|
D|---------------|




Verse:            X12
d|-7772224440000000-|
a|-0000000000000000-|
f|------------------|
c|------------------|
g|------------------|
D|------------------|
   ****************                                                 X3
d|-------------------------------------------------------------------|
a|-------------------------------------------------------------------|
f|-22222222222222222222222222222222----------------------------------|
c|-22222222222222222222222222222222-22222222222222222222222222222222-|
g|-00000000000000000000000000000000-22222222222222222222222222222222-|
D|----------------------------------00000000000000000000000000000000-|
   ******************************** ********************************



Pre-Chorus:   X1                   X1                              X1
d|-------------|--------------------|-------------------------------|
a|-------------|--------------------|-12~9~10~7~9h10p9~12~9~~10p0~~-|
f|-----66------|-444/66-------------|---9~9~~9~9~~~~~~9~~9~9~~9~~~~-|
c|-----66---77-|-444/66-666/77-7777-|-------------------------------|
g|-----44---77-|-222/44-666/77-7777-|-------------------------------|
D|----------55-|--------444/55-5555-|-------------------------------|

              X1                   X2               X1
d|-------------|--------------------|----------------|
a|-------------|--------------------|----------------|
f|--44---------|-444/66-------------|-44~~66~~2~~~~~-|
c|--44----66---|-444/66-666/77-7777-|-44~~66~~2~~~~~-|
g|--22----66---|-222/44-666/77-7777-|-22~~44~~0~~~~~-|
D|--------44---|--------444/55-5555-|----------------|




Chorus:                                                                                     X1
d|-77777777555555550000000000000000000~~~~~7777777755555555000000000000~0000~0~~~~~0~~~~~~~~-|
a|-55555555555555555552222255555444444h5p4~5555555555555555555222225555~4444~4h5p4~0~~~~~~~~-|
f|-------------------------------------------------------------------------------------------|
c|-------------------------------------------------------------------------------------------|
g|-------------------------------------------------------------------------------------------|
D|-------------------------------------------------------------------------------------------|
                                                                                            X1
d|-------------------------------------------------------------------------------------------|
a|-------------------------------------------------------------------------------------------|
f|-------------------------6666x4444x4/6\4-------------------------6666-4444-4/6\4-2~~~~~~~~-|
c|-2222222244444444777777776666x4444xx/x\x-2222222244444444777777776666-4444-x/x\x-2~~~~~~~~-|
g|-2222222244444444777777774444x2222x2/4\2-2222222244444444777777774444-2222-2/4\2-0~~~~~~~~-|
D|-000000002222222255555555----------------000000002222222255555555--------------------------|




Post-Chorus:                         X1
d|-------12~~~~~~~~~~~~~~~~~~~~~~~~~~-|
a|---9~~~~~~~9~~~~~~~~~~~~~~~~~~~~~~~-|
f|-9~~~~~~~~~~~~~~~~~~~~~~~~~~~~~~~~~-|
c|------------------------------------|
g|------------------------------------|
D|------------------------------------|
                                     X1
d|-0~~~~~~~~~~~~~~~~~~~~~~~~~~~~~~~~~-|
a|-5~~~~~~~~~~~~~~~~~~~~~~~~~~~~~~~~~-|
f|-4~~~~~~~~~~~~~~~~~~~~~~~~~~~~~~~~~-|
c|-2~~~~~~~~~~~~~~~~~~~~~~~~~~~~~~~~~-|
g|-0~~~~~~~~~~~~~~~~~~~~~~~~~~~~~~~~~-|
D|------------------------------------|




2nd Verse:                           X2
d|---------------------0~~~0~~0~~~~~~-|
a|---9~~~~~~~9~~~~~--7~~~~~~~~~~~~~~~-|
f|-----9~~~~~~~9~~~------9~~8~~~~~~~~-|
c|-7~~~~~~~7~~~~~7~9~~~~~~~~~~~~~~~~~-|
g|------------------------------------|
D|------------------------------------|
                                     X2
d|------------------------------------|
a|------------------------------------|
f|-----4422----4422--4-44--4--4/6\4p2-|
c|---22------22----22-2---------------|
g|-00------00------------44-4---------|
D|------------------------------------|
   **************************



Bridge pt. 1:                                                          X1
d|----------------------------------------------------------------------|
a|----------------------------------------------------------------------|
f|-2222222222222222-4444444444444444-6666666666666666-9999998888889999--|
c|-2222222222222222-4444444444444444-6666666666666666-9999999999999999--|
g|-0000000000000000-2222222222222222-4444444444444444-7777777777777777--|
D|----------------------------------------------------------------------|
   **************** **************** **************** **************** x1
d|----------------------------------------------------------------------|
a|----------------------------------------------------------------------|
f|-2222222222222222-4444444444444444-6666666666666666-9999999999999999--|
c|-2222222222222222-4444444444444444-6666666666666666-9999999999999999--|
g|-0000000000000000-2222222222222222-4444444444444444-7777777777777777--|
D|----------------------------------------------------------------------|
   **************** **************** **************** ****************

Bridge pt. 2:                                                          X1
d|-----------------------------------------------------------------12~~----------------------------|
a|-12-12-12-12-12-12-12-12-10-10-10-10-10-10-10-10-7-7-7-7-7-7-7-7---9~~10~~~~12p10~~9~~~~9h10p9~~-|
f|---9--9--9--9--9--9--9--9--9--9--9--9--9--9--9--9-9-9-9-9-9-9-9-9---9~~~~~~~~~~~~9~~~~~~~~~~~~~~-|
c|-------------------------------------------------------------------------------------------------|
g|-------------------------------------------------------------------------------------------------|
D|-------------------------------------------------------------------------------------------------|
    ***********************                       *****************                             X1
d|----------------------------------------------------------------------|
a|----------------------------------------------------------------------|
f|-2222222222222222-4444444444444444-6666666666666666-9999999999999999--|
c|-2222222222222222-4444444444444444-6666666666666666-9999999999999999--|
g|-0000000000000000-2222222222222222-4444444444444444-7777777777777777--|
D|----------------------------------------------------------------------|
   **************** **************** ****************     



Pre-Chorus:   X1                   X1                              X1
d|-------------|--------------------|-------------------------------|
a|-------------|--------------------|-12~9~10~7~9h10p9~12~9~~10p0~~-|
f|-----66------|-444/66-------------|---9~9~~9~9~~~~~~9~~9~9~~9~~~~-|
c|-----66---77-|-444/66-666/77-7777-|-------------------------------|
g|-----44---77-|-222/44-666/77-7777-|-------------------------------|
D|----------55-|--------444/55-5555-|-------------------------------|

              X1                   X1                         X1               X1
d|-------------|--------------------|--------------------------|----------------|
a|-------------|--------------------|--------------------------|----------------|
f|--44---------|-444/66-------------|-44~~-66~~----------------|-44~~66~~2~~~~~-|
c|--44----66---|-444/66-666/77-7777-|-44~~-66~~-66~~-77~~-7777-|-44~~66~~2~~~~~-|
g|--22----66---|-222/44-666/77-7777-|-22~~-44~~-66~~-77~~-7777-|-22~~44~~0~~~~~-|
D|--------44---|--------444/55-5555-|-----------44~~-55~~-5555-|----------------|




Chorus:                                                                                     X1
d|-77777777555555550000000000000000000~~~~~77777777555555-5000000000000-0000-------000~~~~~~-|
a|-55555555555555555552222255555444444h5p4~55555555555555-5555222225555-4444-------555~~~~~~-|
f|---------------------------------------------------------------------------------444~~~~~~-|
c|---------------------------------------------------------------------------------222~~~~~~-|
g|---------------------------------------------------------------------------------000~~~~~~-|
D|-------------------------------------------------------------------------------------------|
                                                                                            X1
d|-------------------------------------------------------------------------------------------|
a|-------------------------------------------------------------------------------------------|
f|-------------------------6666x4444x4/6\4-------------------------6666-4444-------222~~~~~~-|
c|-2222222244444444777777776666x4444xx/x\x-22222222444444-4777777776666-4444-------222~~~~~~-|
g|-2222222244444444777777774444x2222x2/4\2-22222222444444-4777777774444-2222-------000~~~~~~-|
D|-000000002222222255555555----------------00000000222222-255555555--------------------------|



How long have you been holding on? 
cause I can barely sleep 
Or keep on lying to myself, 
that I'm a stranger to these dreams 
So keep thinking you're right, 
I'll try not to give in to you 
So I'll stay out of your sight 

I'm feeling disconnected 
Trapped up in this room with too much time to think about you 
We both know what we're worth, 
but your warnings never paid 
And I'm still counting down the days, 
I just can't figure this out 
but I tried, but I tried 

So I'll take the blame, before I fade away 

Finding every reason not to 
want to stay in the same place 
Because I'd rather stay colder 
when I'm states away,
States Away 
I'm done with your two faces changing every other season 
So here's my goodbye, 
and this time I wrote it for you 

(Same story every time you tried to lose me) 
The same story every time you tried to lose me
The same story every day with a different ending 
It's getting harder to believe 
(the signals that you're sending) 

But in the back of my mind, 
I swear we knew each other 
or maybe it was all a dream, 
too short to tell the time to erase me 
But I knew you always could, 
and I knew you always would
I knew you always could 
I thought I knew who you were

So I'll take the blame, and then I'll fade away

Finding every reason not to 
want to stay in the same place 
Because I'd rather stay colder 
when I'm states away
(I'm finally far away from you)
I'm done with your two faces 
changing every other season
So here's my goodbye, 
and this time I wrote it for you








d|----------|
a|----------|
f|- SEAN'S -|
c|- GUITAR -|
g|----------|
D|----------|
 |
d|--------------|
a|--------------|
f|---- 2nd  ----|
c|--- GUITAR ---|
g|--------------|
D|--------------|

TAB KEY
____________________
~ = Let Note Ring   |
                    |
` = Tremelo Picking |
                    |
\ = Slide Down Neck |
                    |
/ = Slide Up Neck   |
                    |
h = Hammer On       |
                    |
p = Pull Off        |
                    |
b = Bend String     |
                    |
x = chugs           |
                    |
* = Palm Mute       |
                    |
{ = Pick Scrape     |
____________________|
comments
We did not receive enough feedback on this tab! Please rate:
print report bad tab
1 2 3 4 5
I want to post or [tab]
guest
You may want to rate the tab now too:
select rating
Please do not post tabs as comments. Select "correction" instead!