Oops, an error
Loading. Please wait.

As Serious As Your Life Tab

version 2
version 2

Whole song

3,219 views 1 this week
no commentswrite comment
1 2 3 4 5
x 4
add to favorites
launch autoscroll
font size
0
reset
how to read this tab
guitar tuner
×
Best way to learn
"As Serious As Your Life"
Autoscroll
slow
fast
+/-
esc
set tempo
stop
Author
Difficulty
  follow
novice
My First tab! There was another good tab on here, but it was only for the main riff.
This is an awesome song, and I thought it deserved a more complete tab. 

  Song:   As Serious As Your Life

Artist:   Four Tet
 
 Album:   Rounds 


           Main riff:
         
e|-------------------------------------|    
B|-------------------------------------|
G|-------------------------------------|
D|------------6-6h8-6------------------|
A|--------6/8-----------8-6------------|
E|---6----------------------9----8-----|

  For the repeating notes:  
                
e|---------------------|
B|---------------------|
G|---------------------|
D|---------------------|
A|---------------------|
E|--6-6-6-6-6-6-6-6----|
        
  This comes in on the second verse: 

e|---------------13-11--------------|
B|---11-13-14-11-------13-14--------|
G|----------------------------------|
D|----------------------------------|
A|----------------------------------|
E|----------------------------------|


This riff carries on for the rest of the song,
with some random glitchy variations. Listen to the song 
to figure them out if you care, it's not that hard.             

e|--------------------------------------|
B|--------------------------------------|
G|--------------------------------------|
D|-------8------------------------------|
A|--------------8-6---------------------|
E|-6----------------9-------8-------9-8-|

    this comes in at 3:05 and 4:27

e|-------------13---------------------------|
B|----14-11-13----11-14-13-11---------------|
G|------------------------------------------|
D|------------------------------------------|
A|------------------------------------------|
E|------------------------------------------|
Suggest correction
comments
print report bad tab
guest
You may want to rate the tab now too:
select rating
Wanna post a correction for this tab? Suggest correction