Oops, an error
Loading. Please wait.

Twenty Three Tab

1,632 views 1 this week
2 commentsread comments
1 2 3 4 5
x 5
add to favorites
launch autoscroll
font size
0
reset
how to read this tab
guitar tuner
Autoscroll
slow
fast
+/-
esc
set tempo
stop
Help us to improve Ultimate-Guitar.com Take our survey!
×
Difficulty
novice
-------------------------------------------------------------------------------
                          Twenty Three - Four Tet
-------------------------------------------------------------------------------
Tabbed by: Mmorg
Email: MrMmorg@gmail.com

Tuning: Standard

Does anyone realize how amazing the beginning of this song is? It would make me
so happy to know that anyone gives a shit about this song so email me if you even
care enough to read this.

e|---------------------------------|
B|---------------------------------|
G|---------------------------------|
D|------0--------------0----2------|
A|----2------0-------2----0---0----|
E|-0-------2---2--3----------------|
Suggest correction
comments
print report bad tab
2 comments total.
0 reply
kayleigh777 10 Nov 20, 2007 08:13 PM

i agree
definetly amazing
love four tet

0 reply
Alan McQueen 10 May 30, 2009 02:32 PM

e|---------------------------------|
B|---------------------------------|
G|---------------------------------|
D|------0--------------0----2------|
A|----2----4-0-------2----0---0----|
E|-0-----------2--3----------------|

guest
You may want to rate the tab now too:
select rating
Wanna post a correction for this tab? Suggest correction