Oops, an error
Loading. Please wait.

Beatdown In The Key Of Happy Tab

version 1
version 1

Whole song

Interactive

30,718 views 9 this week
1 commentread comment
1 2 3 4 5
1 last vote to show rating
add to favorites
launch autoscroll
font size
0
reset
how to read this tab
guitar tuner
Autoscroll
slow
fast
+/-
esc
set tempo
stop
Help us to improve Ultimate-Guitar.com Take our survey!
×
Author
Difficulty
Tuning
intermediate
D A D G B E
hey guys well this is my first tab. i encluded the time but i dont think it will be needed.
* =pinch harmonic
~ =hold

intro
:00-:10
e ---------------------------------------------|
b ---------------------------------------------|
g ---------------------------------------------|
d ---------------------------------------------|
a ---9-7-5--4-5--7-5-4-5---9-7-5*-4-5--7-5-4-5-|
d -00----------00--------00----------00--------|
                                               x1    one guitar
e ---------------------------------------------|
b ---------------------------------------------|
g ---------------------------------------------|
d ---------------------------------------------|
a ---9-7-5*-4-5--7-5-4-5---9-7-5--4-5--7-5-4-5-|
d -00----------00--------00----------00--------|

full band enters
:10-:30
e ----------------------------------------------|
b ----------------------------------------------|
g ----------------------------------------------|
d ----------------------------------------------|
a ---9-7-5*-4-5--7-5-4-5---9-7-5--4-5--7-5-4-5--|
d -00----------00--------00----------00---------|
                                                x2
e ---------------------------------------------|
b ---------------------------------------------|
g ---------------------------------------------|
d ---------------------------------------------|4th time end on
a ---9-7-5--4-5--7-5-4-5---9-7-5--4-5--7-5-4-5*|-7~
d -00----------00--------00----------00--------|---

2nd guiter part after guitar 1 plays this once ^^^^
:20-:30
e --------------------------------------------------|
b --------------------------------------------------|  x2
g --------------------------------------------------|
d --------------------------------------------------|2nd time end on
a ---12-10-9--7-9--10-9-7-9---12-10-9--7-9--10-9-7-9|-7~
d -00------------00---------00------------00--------|---

verse
  part one :33-:43
e -----------------------------------------|
b -----------------------------------------|
g -7766---7766---7766--7766---7766---7976--| x2
d -----77-----77-----------77-----77-------|
a -----------------------------------------|
d -----------------------------------------|

part two :44-:56
e ----------------------|
b ----------------------|
g -7777-9999-66666666---|  x2
d -7777-7777-77777777---|
a ----------------------|
d ----------------------|

chorus
your a gamble.. :57-1:16
e ----------------------------------------------|
b ----------------------------------------------|
g ----------------------------------------------| x1
d 0000-5555-0000-7777-0000-5555-0000-7777-5555--|
a 0000-5555-0000-7777-0000-5555-0000-7777-5555--|
d 0000-5555-0000-7777-0000-5555-0000-7777-5555--|

pre-verse
1:17-1:21
e ------------------------------------|
b ------------------------------------|
g ------------------------------------|
d ------------------------------------| x1
a -000---00------00000-----000----00--|
d -000---00------00000-----000----00--|

verse
 part one 1:22-1:31
e -----------------------------------------|
b -----------------------------------------|
g -7766---7766---7766--7766---7766---7976--| x2
d -----77-----77-----------77-----77-------|
a -----------------------------------------|
d -----------------------------------------|

part two 1:32-1:44
e ----------------------|
b ----------------------|
g -7777-9999-66666666---|  x2
d -7777-7777-77777777---|
a ----------------------|
d ----------------------|

chorus
your a gamble.. 1:45-2:04
e ----------------------------------------------|
b ----------------------------------------------|
g ----------------------------------------------| x1
d 0000-5555-0000-7777-0000-5555-0000-7777-5555--|
a 0000-5555-0000-7777-0000-5555-0000-7777-5555--|
d 0000-5555-0000-7777-0000-5555-0000-7777-5555--|

breakdown
2:05-2:08
e ---------------------|
b ---------------------|
g ---------------------|
d ---------------------|
a -000---00----00000---|
d -000---00----00000---|

OOHHHHH
 2:09-2:27
e --------------------|
b --------------------|
g --------------------|
d --------------------| x8
a -000---00----00000--|
d -000---00----00000--|

after 3 times of that ^^^ keyboard and guitar enter
its very soft
e -------------------------------|
b -------------------------------|
g -------------------------------| x2
d -------------------------------|
a 5-10-9-7-7-5-9---5-7-9-10-9-7--|
d -------------------------------|

chorus
your a gamble.. 2:28-2:48
e ----------------------------------------------|
b ----------------------------------------------|
g ----------------------------------------------| x1
d 0000-5555-0000-7777-0000-5555-0000-7777-5555--|
a 0000-5555-0000-7777-0000-5555-0000-7777-5555--|
d 0000-5555-0000-7777-0000-5555-0000-7777-5555--|

intro 2:48-2:58
e ---------------------------------------------|
b ---------------------------------------------|
g ---------------------------------------------|
d ---------------------------------------------|
a ---9-7-5--4-5--7-5-4-5---9-7-5--4-5--7-5-4-5-|
d -00----------00--------00----------00--------|
                                               x1
e ---------------------------------------------|
b ---------------------------------------------|
g ---------------------------------------------|
d ---------------------------------------------|
a ---9-7-5*-4-5--7-5-4-5---9-7-5--4-5--7-5-4-5-|
d -00----------00--------00----------00--------|

second guitar

e --------------------|
b --------------------|
g --------------------|
d --------------------| x4
a -000---00----00000--|
d -000---00----00000--|

end on

e ---
b ---
g ---
d ---
a -00
d -00

then some weird feedback at the end which i dont know how to do.

and thats it
i hope you enjoy
please rate =)
have a good day
Suggest correction
Give kudos to tab author, rate the tab!
1 2 3 4 5
comments
print report bad tab
1 comment total.
+1 reply
Xvendo. 10 Aug 22, 2008 11:12 PM

I believe it goes,

e|------------------------------
b|------------------------------
g|------------------------------
d|------------------------------
a|------9p7---5~----5------5-4h5
d|--000-----0----0-4--000-4-----

guest
You may want to rate the tab now too:
select rating
Wanna post a correction for this tab? Suggest correction