Oops, an error
Loading. Please wait.

Find My Way Back tab

version 1
version 1

Whole song

Interactive

22,769 views 3 this week
no commentswrite comment
1 2 3 4 5
x 3
add to favorites
×
Save as Personal and add changes to this tab that will be seen only by you. Learn more ›
×
You can save this tab as Personal to edit and correct it or add notes. All changes will be seen only by you. Learn more »
launch autoscroll
font size
0
reset
how to read this tab
guitar tuner
edit
Autoscroll
slow
fast
+/-
esc
set tempo
stop
Author
Difficulty
I know the whole song, but not every inch of it. And I'm not entirely sure whether to 
this as novice or intermediate so.....good luck.

This Consists of Two Guitars

Intro{part 1}of(Guitar 1): (0:00 - 0:18)
(play this part four times)
E|-5-3--6-------------------------------------------------------------------|
B|--6--6--------------------------------------------------------------------|
G|--------------------------------------------------------------------------|
D|3---3---------------------------------------------------------------------|
A|--------------------------------------------------------------------------|
E|--------------------------------------------------------------------------|

Intro{part 2}of(Guitar 1): (0:19 - 0:22)
(play this part once)
E|-8-10-8-------8--10-8-----------------------------------------------------|
B|--------10-11-------------------------------------------------------------|
G|--------------------------------------------------------------------------|
D|--------------------------------------------------------------------------|
A|--------------------------------------------------------------------------|
E|--------------------------------------------------------------------------|

Intro(Guitar 2): (0:05 - 0:22)
(play this part four times)
E|--------------------------------------------------------------------------|
B|--------------------------------------------------------------------------|
G|--------------------------------------------------------------------------|
D|-7-x4---3-x4----------5-x4------------------------------------------------|
A|-5-x4---1-x4---3-x4---3-x4------------------------------------------------|
E|---------------1-x4-------------------------------------------------------|

"I can't believe!"(Guitar 1): (0:23 - 0:40)
(play this part four times)
E|--------------------------------------------------------------------------|
B|--------------------------------------------------------------------------|
G|-2------------------------------------------------------------------------|
D|-0--3-2-3--3--3-3-2-----3-5-7--5--3-2-3-2---------------------------------|
A|-----------1---------3---------3------------------------------------------|
E|---------------------1----------------------------------------------------|

"I can't believe!"(Guitar 2): (0:32 - 0:40)
--------------------
still haven't figured this out yet. Its some kind of harmony that goes with the first 
that gives this part a different sound if you listen at this part.
--------------------


Pre-Chorus{part 1}of(Guitar 1): (0:41 - 0:54)
(play this part three times)
E|--------------------------------------------------------------------------|
B|--------------------------------------------------------------------------|
G|--------------------------------------------------------------------------|
D|--------3-x4--------5-x4--------------------------------------------------|
A|--5-x4--1-x4--3-x4--3-x4--------------------------------------------------|
E|--3-x4--------1-x4--------------------------------------------------------|

Pre-Chorus{part 2}of(Guitar 1): (0:55 - 0:59)
(play this part once)
E|--------------------------------------------------------------------------|
B|--------------------------------------------------------------------------|
G|--------------------------------------------------------------------------|
D|--7-x4--------------------------------------------------------------------|
A|--5-x4--3-x3--8-x3--10-x2-------------------------------------------------|
E|--------1-x3--6-x3--8--x2-------------------------------------------------|

Chorus(Guitar 1): (1:00 - 1:17)
(play this part four times)
E|--------------------------------------------------------------------------|
B|--------------------------------------------------------------------------|
G|--------------------------------------------------------------------------|
D|--3-x4--------5-x4--7-x4--------------------------------------------------|
A|--1-x4--3-x4--3-x4--5-x4--------------------------------------------------|
E|--------1-x4--------------------------------------------------------------|

Chorus(Guitar 2): (1:00 - 1:17)
(play this part four times)
E|-5-3--6-------------------------------------------------------------------|
B|--6--6--------------------------------------------------------------------|
G|--------------------------------------------------------------------------|
D|3---3---------------------------------------------------------------------|
A|--------------------------------------------------------------------------|
E|--------------------------------------------------------------------------|

(play this part once)
E|-8-10-8-------8--10-8-----------------------------------------------------|
B|--------10-11-------------------------------------------------------------|
G|--------------------------------------------------------------------------|
D|--------------------------------------------------------------------------|
A|--------------------------------------------------------------------------|
E|--------------------------------------------------------------------------|

"I Feel the Heat!"(Guitar 1): (1:18 - 1:44)
(play this part 6 times)
E|--------------------------------------------------------------------------|
B|--------------------------------------------------------------------------|
G|-2------------------------------------------------------------------------|
D|-0--3-2-3--3--3-3-2-----3-5-7--5--3-2-3-2---------------------------------|
A|-----------1---------3---------3------------------------------------------|
E|---------------------1----------------------------------------------------|

"I Feel the Heat!"(Guitar 2): (1:35 - 1:44)
--------------------
still haven't figured this out yet. Its some kind of harmony that goes with the first 
that gives this part a different sound if you listen at this part.
--------------------

Pre-Chorus2{part 1}of(Guitar 1): (1:45 - 2:02)
(play this part three times)
E|--------------------------------------------------------------------------|
B|--------------------------------------------------------------------------|
G|--------------------------------------------------------------------------|
D|--------3-x4--------5-x4--------------------------------------------------|
A|--5-x4--1-x4--3-x4--3-x4--------------------------------------------------|
E|--3-x4--------1-x4--------------------------------------------------------|

Pre-Chorus2{part 2}of(Guitar 1): (1:58 - 2:02)
(play this part once)
E|--------------------------------------------------------------------------|
B|--------------------------------------------------------------------------|
G|--------------------------------------------------------------------------|
D|--7-x4--------------------------------------------------------------------|
A|--5-x4--3-x3--8-x3--10-x2-------------------------------------------------|
E|--------1-x3--6-x3--8--x2-------------------------------------------------|

Chorus2(Guitar 1): (2:03 - 2:19)
(play this part once)
E|--------------------------------------------------------------------------|
B|--------------------------------------------------------------------------|
G|--------------------------------------------------------------------------|
D|--3-x4--------5-x4--7-x4--------------------------------------------------|
A|--1-x4--3-x4--3-x4--5-x4--------------------------------------------------|
E|--------1-x4--------------------------------------------------------------|

{then play it another time like this (below)}

E|--------------------------------------------------------------------------|
B|--------------------------------------------------------------------------|
G|--------------------------------------------------------------------------|
D|--3-x4------------3-5-3-0-----5-x4--7-x4----------------------------------|
A|--1-x4--3-x4--3-5-------------3-x4--5-x4----------------------------------|
E|--------1-x4--------------------------------------------------------------|

(then play it normally again two more times)

E|--------------------------------------------------------------------------|
B|--------------------------------------------------------------------------|
G|--------------------------------------------------------------------------|
D|--3-x4--------5-x4--7-x4--------------------------------------------------|
A|--1-x4--3-x4--3-x4--5-x4--------------------------------------------------|
E|--------1-x4--------------------------------------------------------------|

Chorus2(Guitar 2): (2:03 - 2:19)
play this part four times)
E|-5-3--6-------------------------------------------------------------------|
B|--6--6--------------------------------------------------------------------|
G|--------------------------------------------------------------------------|
D|3---3---------------------------------------------------------------------|
A|--------------------------------------------------------------------------|
E|--------------------------------------------------------------------------|

(play this part once)
E|-8-10-8-------8--10-8-----------------------------------------------------|
B|--------10-11-------------------------------------------------------------|
G|--------------------------------------------------------------------------|
D|--------------------------------------------------------------------------|
A|--------------------------------------------------------------------------|
E|--------------------------------------------------------------------------|

Transition-thing): (2:21 - 2:29)
(play it twice)
E|--------------------------------------------------------------------------|
B|--------------------------------------------------------------------------|
G|------------2-------------------------------------------------------------|
D|--0-3---------3-----------------------------------------------------------|
A|------1-------3-----------------------------------------------------------|
E|----------1---------------------------------------------------------------|
"Under the Weight of the World!"): (2:30 - 2:39)
E|--------------------------------------------------------------------------|
B|--------------------------------------------------------------------------|
G|--------------------------------------------------------------------------|
D|--------3-x4--------5-x4---------3-x3--5-x1-------------------------------|
A|--5-x4--1-x4--3-x4--3-x4---5-x2--1-x3--3-x1-------------------------------|
E|--3-x4--------1-x4---------3-x2-------------------------------------------|

Small Intro(Guitar 1): (2:40 - 2:48)
(play this part two times)
E|-5-3--6-------------------------------------------------------------------|
B|--6--6--------------------------------------------------------------------|
G|--------------------------------------------------------------------------|
D|3---3---------------------------------------------------------------------|
A|--------------------------------------------------------------------------|
E|--------------------------------------------------------------------------|

and just play the chorus parts over and over till the end.

Chorus3(Guitar 1): (2:50 - 3:28)
E|--------------------------------------------------------------------------|
B|--------------------------------------------------------------------------|
G|--------------------------------------------------------------------------|
D|--3-x4--------5-x4--7-x4--------------------------------------------------|
A|--1-x4--3-x4--3-x4--5-x4--------------------------------------------------|
E|--------1-x4--------------------------------------------------------------|

Chorus3(Guitar 2): (2:50 - 3:28)
E|-5-3--6-------------------------------------------------------------------|
B|--6--6--------------------------------------------------------------------|
G|--------------------------------------------------------------------------|
D|3---3---------------------------------------------------------------------|
A|--------------------------------------------------------------------------|
E|--------------------------------------------------------------------------|

E|-8-10-8-------8--10-8-----------------------------------------------------|
B|--------10-11-------------------------------------------------------------|
G|--------------------------------------------------------------------------|
D|--------------------------------------------------------------------------|
A|--------------------------------------------------------------------------|
E|--------------------------------------------------------------------------|

Good Luck. Try playing along with the song. It should make sense.

~Fritz

            
            
Suggest correction
Creating personal tab
Creating personal tab
You can edit any tab online and save it as your Personal.

You can edit, replace or remove any tab part or add personal notes – all changes will be seen only by you.

Personal tabs can be accessed anytime from any device, even offline.
Learn more »
Give kudos to tab author, rate the tab!
1 2 3 4 5
comments
print report bad tab
guest
You may want to rate the tab now too:
select rating
Wanna post a correction for this tab? Suggest correction