Oops, an error
Loading. Please wait.

Heroes Get Remembered Legends Never Die tab

version 1
version 1

Whole song

Interactive

11,261 views 30 this week
3 commentsread comments
1 2 3 4 5
x 3
add to favorites
×
Save as Personal and add changes to this tab that will be seen only by you. Learn more ›
×
You can save this tab as Personal to edit and correct it or add notes. All changes will be seen only by you. Learn more »
launch autoscroll
font size
0
reset
how to read this tab
guitar tuner
edit
Autoscroll
slow
fast
+/-
esc
set tempo
stop
TUNING: DGCFAD [FULL STEP DOWN (D-STANDARD)]

*This is their real tuning

Intro:
|-----------------------------------------------------|
|-----------------------------------------------------|
|-----------------------------------------------------|
|----------6-----------7-------------6----------------|
|222-22222---9----------11---------------7---7---/9-7-|
|000-00000-----000-000-----000-00000---7---0---0------|

|--------------------------------------------------------------|
|-----------------------------------Guitar II------------------|
|--------------------------------[88----6-8-6-]----------------|
|----------6-----------7----xxxx-[---xx-------]xx-66-xx-7----7-|
|222-22222---9-----------11-xxxx-[77-xx-7-7-7-]xx-99-xx---11---|
|000-00000-----000-000------xxxx-[---xx-------]xx----xx--------|

|-----------------------------------------------------|
|-----------------------------------------------------|
|-----------------------------------------------------|
|----------6-----------7-------------6----------------|
|222-22222---9----------11---------------7---7---/9-7-|
|000-00000-----000-000-----000-00000---7---0---0------|

|-----------------------------------------------------|
|-----------------------------------------------------|
|-----------------------------------------------------|
|----------6-----------7-------------6----------------|
|222-22222---9----------11---------------7---7---/9-7-|
|000-00000-----000-000-----000-00000---7---0---0------|

Verse:
|-----------|----------------------|------------------|------------------------------|
|-----------|----------------------|------------------|------------------------------|
|-----------|----------------------|--------------9*b-|------------------------------|
|----2------|-----2----------------|------------------|------------2-----------------|
|22222-2-22-|-22222-2-2------------|--2222-7*-2-2-----|-22-22-222222-2-2-------------|
|00000-0-00-|-00000-0-0-004-7-5-4*v|--0000----0-0-----|-00-00-000000-0-0-004-5-7-5-4-|

Guitar II
||0-0-0-0-0-0-0-0-0-0-0-0-0-0-0-0-0-0-0-0-0-0-0-0-0-0-0-0-0-0-0-0-|\
||5-5-5-5-5-5-5-5-5-5-5-5-4-4-4-4-2-2-2-2-2-2-2-2-2-2-2-2-2-2-2-2-| \
||----------------------------------------------------------------| Repeat
||----------------------------------------------------------------| Twice
||----------------------------------------------------------------| /
||----------------------------------------------------------------|/

|-----------|----------------------|------------------|------------------------------|
|-----------|----------------------|------------------|------------------------------|
|-----------|----------------------|--------------9*b-|------------------------------|
|----2------|-----2----------------|------------------|------------2-----------------|
|22222-2-22-|-22222-2-2------------|--2222-7*-2-2-----|-22-22-222222-2-2-------------|
|00000-0-00-|-00000-0-0-004-7-5-4*v|--0000----0-0-----|-00-00-000000-0-0-004-5-7-5-4-|

Pre Chorus:
Guitar II
||0--0--0--0--0--0--0--0--0--0--0--0--0--0--0--0--0-0-0-0-0-0-0-0-0-0-0-0-0-0-0-|
||12-12-12-12-16-17-16-12-12-12-12-12-16-17-16-12-7-7-7-9-9-9-9-9-9-9-9-9-7-5-5-|
||------------------------------------------------------------------------------|
||------------------------------------------------------------------------------|
||------------------------------------------------------------------------------|
||------------------------------------------------------------------------------|

                                                        Slow, gradual bend upward
||0--0--0--0--0--0--0--0--0--0--0--0--0--0--0--0--0-0-0-0--0--0--0--0--0--0--0--0--0--0--0--|
||12-12-12-12-16-17-16-12-12-12-12-12-16-17-16-12-7-7-7-9b-9b-9b-9b-9b-9b-9b-9b-9b-9b-9b-9b-|
||------------------------------------------------------------------------------------------|
||------------------------------------------------------------------------------------------|
||------------------------------------------------------------------------------------------|
||------------------------------------------------------------------------------------------|

Pre-Chorus:
Guitar I
|------------------------------------------------------------|
|------------------------------------------------------------|
|--------------------------------6-6-x-x-x-x-6-6-x-x-x-x-6---|
|7-7-7-7-7-7-7-7-7-7-7-7-9-9-9-9-6-6-x-x-x-x-6-6-x-x-x-x-6-9-|
|7-7-7-7-7-7-7-7-7-7-7-7-9-9-9-9-4-4-x-x-x-x-4-4-x-x-x-x-4-9-|
|5-5-5-5-5-5-5-5-5-5-5-5-7-7-7-7-4-4-x-x-x-x-4-4-x-x-x-x-4-7-|

|-------------------------------------------------------------|
|-------------------------------------------------------------|
|-------------------------------------------------------------|
|7-7-7-7-7-7-7-7-7-7-7-7-9-9-9-9------------------------------|
|7-7-7-7-7-7-7-7-7-7-7-7-9-9-9-9---------------------------7*-|
|5-5-5-5-5-5-5-5-5-5-5-5-7-7-7-7-002p0-0-5p0-0-2p0-0-7p0-0----|

Chorus:
|-----------------------------------------------------|
|-----------------------------------------------------|
|-----------------------------------------------------|
|----------6-----------7-------------6----------------|
|222-22222---9----------11---------------7---7---/9-7-|
|000-00000-----000-000-----000-00000---7---0---0------|

|------------------------------------------|
|------------------------------------------|
|------------------------------------------|
|----------6-----------7-------------------|
|222-22222---9----------11------------11-9-|
|000-00000-----000-000-----000-00000-/9--7-|

Verse II:
|-----------|----------------------|------------------|------------------------------|
|-----------|----------------------|------------------|------------------------------|
|-----------|----------------------|--------------9*b-|------------------------------|
|----2------|-----2----------------|------------------|------------2-----------------|
|22222-2-22-|-22222-2-2------------|--2222-7*-2-2-----|-22-22-222222-2-2-------------|
|00000-0-00-|-00000-0-0-004-7-5-4*v|--0000----0-0-----|-00-00-000000-0-0-004-5-7-5-4-|

Verse II:
Guitar II
||0-0-0-0-0-0-0-0-0-0-0-0-0-0-0-0-0-0-0-0-0-0-0-0-0-0-0-0-0-0-0-0-|\
||5-5-5-5-5-5-5-5-5-5-5-5-4-4-4-4-2-2-2-2-2-2-2-2-2-2-2-2-2-2-2-2-| \
||----------------------------------------------------------------| Repeat
||----------------------------------------------------------------| Twice
||----------------------------------------------------------------| /
||----------------------------------------------------------------|/

|-----------|----------------------|------------------|------------------------------|
|-----------|----------------------|------------------|------------------------------|
|-----------|----------------------|--------------9*b-|------------------------------|
|----2------|-----2----------------|------------------|------------2-----------------|
|22222-2-22-|-22222-2-2------------|--2222-7*-2-2-----|-22-22-222222-2-2-------------|
|00000-0-00-|-00000-0-0-004-7-5-4*v|--0000----0-0-----|-00-00-000000-0-0-004-5-7-5-4-|

Pre Chorus:
Guitar II
||0--0--0--0--0--0--0--0--0--0--0--0--0--0--0--0--0-0-0-0-0-0-0-0-0-0-0-0-0-0-0-|
||12-12-12-12-16-17-16-12-12-12-12-12-16-17-16-12-7-7-7-9-9-9-9-9-9-9-9-9-7-5-5-|
||------------------------------------------------------------------------------|
||------------------------------------------------------------------------------|
||------------------------------------------------------------------------------|
||------------------------------------------------------------------------------|
                                                        Slow, gradual bend upward
||0--0--0--0--0--0--0--0--0--0--0--0--0--0--0--0--0-0-0-0--0--0--0--0--0--0--0--0--0--0--0--|
||12-12-12-12-16-17-16-12-12-12-12-12-16-17-16-12-7-7-7-9b-9b-9b-9b-9b-9b-9b-9b-9b-9b-9b-9b-|
||------------------------------------------------------------------------------------------|
||------------------------------------------------------------------------------------------|
||------------------------------------------------------------------------------------------|
||------------------------------------------------------------------------------------------|

Pre Chorus:
Guitar I
|------------------------------------------------------------|
|------------------------------------------------------------|
|--------------------------------6-6-x-x-x-x-6-6-x-x-x-x-6---|
|7-7-7-7-7-7-7-7-7-7-7-7-9-9-9-9-6-6-x-x-x-x-6-6-x-x-x-x-6-9-|
|7-7-7-7-7-7-7-7-7-7-7-7-9-9-9-9-4-4-x-x-x-x-4-4-x-x-x-x-4-9-|
|5-5-5-5-5-5-5-5-5-5-5-5-7-7-7-7-4-4-x-x-x-x-4-4-x-x-x-x-4-7-|

|-------------------------------------------------------------|
|-------------------------------------------------------------|
|-------------------------------------------------------------|
|7-7-7-7-7-7-7-7-7-7-7-7-9-9-9-9------------------------------|
|7-7-7-7-7-7-7-7-7-7-7-7-9-9-9-9---------------------------7*-|
|5-5-5-5-5-5-5-5-5-5-5-5-7-7-7-7-002p0-0-5p0-0-2p0-0-7p0-0----|

Chorus:
|-----------------------------------------------------|
|-----------------------------------------------------|
|-----------------------------------------------------|
|----------6-----------7-------------6----------------|
|222-22222---9----------11---------------7---7---/9-7-|
|000-00000-----000-000-----000-00000---7---0---0------|

|--------------------------------------------------------|
|--------------------------------------------------------|
|--------------------------------------------------------|
|----------6-----------7-------------6-------------------|
|222-22222---9----------11---------------7---7---/9------|
|000-00000-----000-000-----000-00000---7---0---0----17\--|

                                                                                           2nd time
|--------------------------|--------------------|--------------------------|---------------|---|
|--------------------------|--------------------|--------------------------|---------------|---|
|--------------------------|--------------------|--------------------------|---------------|---|
|--2-----2-----------------|--2---2-------------|--2-----2-----------------|---------------|-2-|
|222-22222-----------------|222-222-------------|222-22222-----------------|----7---7h9-7\-|-2-|
|000-00000-[3]-[3]-[3]-[3]-|000-000-[3]-[3]-[3]-|000-00000-[3]-[3]-[3]-[3]-|-/9---9--------|-0-|

Bridge:
Guitar II
||0-0-0-0-0-0-0-0-0-0-0-0-0-0-0-0-0-0-0-0-0-0-0-0-0-0-0-0-0-0-0-0-|\
||5-5-5-5-5-5-5-5-5-5-5-5-4-4-4-4-2-2-2-2-2-2-2-2-2-2-2-2-2-2-2-2-| \
||----------------------------------------------------------------| Repeat
||----------------------------------------------------------------| 8 times
||----------------------------------------------------------------| /
||----------------------------------------------------------------|/

Bridge:
Guitar I
|0-0-0-0-0-0-0-0-0-0-0-0-0-0-0|-0-0--0-0-0--0-0-0--0-0-0--0|-0-0-0-0-0-0-0-0-0-0-0-0-0-0-0-0-0-0-0-|
|9-9-9-7-7-7-5-5-5-4-4-4-5-5-5|-9-12-9-9-12-9-9-12-9-9-12-9|-7-7-7-5-5-5-5-5-5-5-5-5-5-5-5-5-5-5-5-|
|-----------------------------|----------------------------|---------------------------------------|
|-----------------------------|----------------------------|---------------------------------------|
|-----------------------------|----------------------------|---------------------------------------|
|-----------------------------|----------------------------|---------------------------------------|

|0-0-0-0-0-0-0-0-0-0-0-0-0-0-0-0-0-0-0-0-0-0-0-0-0-0-0-0-0-0-0-0-|\
|9-9-9-9-9-9-9-9-9-9-9-9-7-7-7-7-5-5-5-5-5-5-5-5-5-5-5-5-5-5-5-5-| \
|----------------------------------------------------------------| Repeat
|----------------------------------------------------------------| Twice
|----------------------------------------------------------------| /
|----------------------------------------------------------------|/

Bridge II
Guitar I:
|----------|--------|----------|------------|----------|
|----------|--------|----------|------------|----------|
|----------|--------|----------|------------|----------|
|----------|--------|----------|------------|----------|
|222-22222-|222-222-|222-22222-|------------|222-22227-|
|000-00000-|000-000-|000-00000-|004-5-7-5-4-|000-0000--|

|--------|----------|------------|----------|
|--------|----------|------------|----------|
|--------|----------|------------|----------|
|--------|----------|------------|----------|
|222-222-|222-22222-|------------|222-22227-|
|000-000-|000-00000-|004-5-7-5-4-|000-0000--|

|--------|----------|------------|----------|
|--------|----------|------------|----------|
|--------|----------|------------|----------|
|--------|----------|------------|----------|
|222-222-|222-22222-|------------|222-22227-|
|000-000-|000-00000-|004-5-7-5-4-|000-0000--|

|--------|----------|----|------|
|--------|----------|----|--[5]-|
|--------|----------|----|--[5]-|
|--------|----------|----|--[5]-|
|222-222-|222-22222-|2-2-|------|
|000-000-|000-00000-|0-0-|0-----|

Breakdown:
|------|------------|------|------------|--------|------|------------|------|
|------|------------|------|------------|--------|------|------------|------|
|------|------------|------|------------|--------|------|------------|7*----|
|------|------------|------|------------|--------|------|------------|------|
|22-22-|22-22-22-22-|22-22-|22-22-22-22-|-22-22--|22-22-|22-22-22-22-|---9*-|
|00-00-|00-00-00-00-|00-00-|00-00-00-00-|-00-00--|00-00-|00-00-00-00-|------|

------|------------|------|
------|------------|------|
------|------------|------|
------|------------|------|
22-22-|22-22-22-22-|22-22-|
00-00-|00-00-00-00-|00-00-|

Chorus:
|-----------------------------------------------------|
|-----------------------------------------------------|
|-----------------------------------------------------|
|----------6-----------7-------------6----------------|
|222-22222---9----------11---------------7---7---/9-7-|
|000-00000-----000-000-----000-00000---7---0---0------|

|------------------------------------------------------|
|------------------------------------------------------|
|------------------------------------------------------|
|----------6-----------7--------------6----------------|
|222-22222---9-----------11---------------7---7---/9-7-|
|000-00000------000-000-----000-00000---7---0---0------|

|------------------------------------------------------|
|------------------------------------------------------|
|------------------------------------------------------|
|----------6-----------7--------------6----------------|
|222-22222---9*----------11---------------7---7---/9-7-|
|000-00000------000-000-----000-00000---7---0---0------|

|------------------------------------------------------|
|------------------------------------------------------|
|------------------------------------------------------|
|----------6-----------7--------------6----------------|
|222-22222---9-----------11---------------7---7---/9-7-|
|000-00000------000-000-----000-00000---7---0---0------|

|----------|
|----------|
|----------|
|--2-----2-|
|222-22222-|
|000-00000-|

            
            
Suggest correction
Creating personal tab
Creating personal tab
You can edit any tab online and save it as your Personal.

You can edit, replace or remove any tab part or add personal notes – all changes will be seen only by you.

Personal tabs can be accessed anytime from any device, even offline.
Learn more »
Give kudos to tab author, rate the tab!
1 2 3 4 5
comments
print report bad tab
3 comments total.
0 reply
AmericanNervoso 31 Mar 24, 2008 04:26 PM

i think the intro might be a little different

0 reply
Dobbin87 20 Apr 15, 2008 09:53 AM

this tab is missing a ton of parts, but its a decent start. we need to expand on this a lot.

0 reply
rthryhorysak 72 Feb 26, 2012 08:52 AM

Best tab I've seen

guest
You may want to rate the tab now too:
select rating
Wanna post a correction for this tab? Suggest correction