Oops, an error
Loading. Please wait.

Im A Big Bright Shining Star tab

1,672 views 1 this week
1 commentread comment
1 2 3 4 5
x 4
add to favorites
×
Save as Personal and add changes to this tab that will be seen only by you. Learn more ›
×
You can save this tab as Personal to edit and correct it or add notes. All changes will be seen only by you. Learn more »
launch autoscroll
font size
0
reset
how to read this tab
guitar tuner
edit
Autoscroll
slow
fast
+/-
esc
set tempo
stop
INTRO
D ------------------------------------------------|
A ------------------------------------------------|
F ------------------------------------------------|
C -----------------------11-----------------------|
G -------9-----11----------------11------9h11-----|
D --000-----0--------0-------0----------------12--|
PM----      -        -       ---------------------|

                1st ending                          2nd ending
D -------------------------------------------------------------------------------------------|
A -------------------------------------------------------------------------------------------|
F -------------------------------------------------------------------------------------------|
C --------------------11---------------------------------------------------------------------|
G ----9h11----9h11p9-----11--------------------------6h8-----------7-------------------------|
D ---------12---------------------------------------------9----7h9----9--7--9----------------|

VERSE
D -------------------------------------------------------------------------------------------|
A -------------------------------------------------------------------------------------------|
F -------------------------------------------------------------------------------------------|
C ----7---------9-------6-------11-----------------------------------------------------------|
G ----7---------9-------6-------11-----------7-----------------------------------------------|
D ----5---------7-------4-------9-------7h9-----9--7--9--------------------------------------|
Play once, then back to intro then

PRE-CHORUS
D ------0--0-----0---0------0--0--------0---0---0--------------------------------------------|
A ------5--2-----9---7-----10--9/------\9---7---5--------------------------------------------|
F -------------------------------------------------------------------------------------------|
C -------------------------------------------------x3----------------------------------------|
G -------------------------------------------------------------------------------------------|
D -------------------------------------------------------------------------------------------|

                         *
D ------------------------------------------9--11--------------------------------------------|
A ----2-2--4-4---5--5----4-5-7---9--10--12---------------------------------------------------|
F -------------------------------------------------------------------------------------------|
C -------------------------------------------------------------------------------------------|
G -------------------------------------------------------------------------------------------|
D -------------------------------------------------------------------------------------------|

CHORUS
D ----12-0-0-0-0-12-0-12-0-0-0-0-12-0-12-0-0-0-0-12-0-0-0-0-12-0-12----11h12p11--9--7--------|
A -------------------------------------------------------------------------------------------|
F -------------------------------------------------------------------------------------------|
C ------------------------------------------------------------------------------------x2-----|
G -------------------------------------------------------------------------------------------|
D -------------------------------------------------------------------------------------------|

D -------------------------------------------------------------------------------------------|
A ---10p9---10--10p9--10--10p9----10p9----10---10p9---9--10/12-------------------------------|
F -------------------------------------------------------------------------------------------|
C -------------------------------------------------------------------------------------------|
G -------------------------------------------------------------------------------------------|
D -------------------------------------------------------------------------------------------|

D -12-0-0-0-0-12-0-12-0-0-0-0-12-0-12--12--11----------12-0-0-0-0-12-0-12-11h12-9--7---------|
A ---------------------------------------------14--12----------------------------------------|
F -------------------------------------------------------------------------------------------|
C -------------------------------------------------------------------------------------------|
G -------------------------------------------------------------------------------------------|
D -------------------------------------------------------------------------------------------|
Play intro, verse, pre-chorus, chorus

BRIDGE
D ----12-0-0-0-0-12-0-12-0-0-0-0-12-0-12-0-0-0-0-12-0-0-0-0-12-0-12----11h12p11--9--7--------|
A -------------------------------------------------------------------------------------------|
F -------------------------------------------------------------------------------------------|
C -------------------------------------------------------------------------------------------|
G -------------------------------------------------------------------------------------------|
D -------------------------------------------------------------------------------------------|

D ---12-0-0-0-0-12-0-12-0-0-0-0-12-0-12-0-0-0-0-12-0-0-0-0-16h18p16--12--9--7--9-------------|
A -------------------------------------------------------------------------------------------|
F -------------------------------------------------------------------------------------------|
C -------------------------------------------------------------------------------------------|
G -------------------------------------------------------------------------------------------|
D -------------------------------------------------------------------------------------------|

D ----12-0-0-0-0-12-0-12-0-15-0-11-0-0-0-0-11-0-11-0-0-0-0-11-0-0-11-------------------------|
A -------------------------------------------------------------------------------------------|
F -------------------------------------------------------------------------------------------|
C -------------------------------------------------------------------------------------------|
G -------------------------------------------------------------------------------------------|
D -------------------------------------------------------------------------------------------|

D --------------------------------------12--11-----------------------------------------------|
A ---------------------------------------------12--------------------------------------------|
F ------------------------------------------------13-------------------------11-13--13-13----|
C ----4-4---4---4-----4-4----2----7/-----------------13--14----11-13--13--13-----------------|
G ----4-4---4---4-----4-4----2----7/---------------------------------------------------------|
D ----2-2---2---2-----2-2----0----5/---------------------------------------------------------|

D -----------------------------------------------------9--7----------------------------------|
A ---------------------------------------5/7~--5/7~----------9--7----------------------------|
F -----6-6----6--6---6--6----9----------------------~----------------------------------------|
C -----6-6----6--6---6--6----9--9/-----------------------------------------------------------|
G -----4-4----4--4---4--4----7--9/-----------------------------------------------------------|
D ------------------------------7/-----------------------------------------------------------|
repeat last two measures

then pre chorus but play this at the *
D -------------------------------------------------------------------------------------------|
A -------------------------------------------------------------------------------------------|
F ---------------------------------6---8-----------------------------------------------------|
C -------------------6---7---9---------------------------------------------------------------|
G ----6---7---9------------------------------------------------------------------------------|
D -------------------------------------------------------------------------------------------|
Then chorus 1 full time then just the first line of the chrous

            
            
Suggest correction
Creating personal tab
Creating personal tab
You can edit any tab online and save it as your Personal.

You can edit, replace or remove any tab part or add personal notes – all changes will be seen only by you.

Personal tabs can be accessed anytime from any device, even offline.
Learn more »
comments
print report bad tab
1 comment total.
0 reply
Saxens 66 Jul 13, 2015 12:31 PM

During the last mesure of the bridge I think the 5/7---5/7 is on the A string, not on the F string.
However thanks you for the tab.

guest
You may want to rate the tab now too:
select rating
Wanna post a correction for this tab? Suggest correction