Oops, an error
Loading. Please wait.

It Must Really Suck To Be Four Year Strong Right Now bass

version 1
version 1

Whole song

Interactive

3,305 views 12 this week
no commentswrite comment
1 2 3 4 5
1 last vote to show rating
add to favorites
×
Save as Personal and add changes to this tab that will be seen only by you. Learn more ›
×
You can save this tab as Personal to edit and correct it or add notes. All changes will be seen only by you. Learn more »
launch autoscroll
font size
0
reset
guitar tuner
edit
Autoscroll
slow
fast
+/-
esc
set tempo
stop
-------------------------------------------------------------------------------
                             "It Must Really Suck To Be Four Year Strong Right Now" - 
Four Year Strong
-------------------------------------------------------------------------------

Tabbed By : chance22royale
e-mail: chance.king@sbcglobal.net

Tuning: DADG

Intro 00:08
G------------------------------------------------------------------------|
D------------------------------------------------------------------------|
A------------7--9------------------------------7--9--------754---457-\---|
D-0000-0000---5--7--0000-0000-254-0000-0000---5--7-2540-----0------------|

Pre-Chorus1  00:21
G--------------------------------------------------------------------|
D--------------------------------------------------------------------|
A--------------------------------------------------------------------|
D---5550--555--------------------------------------------------------|

Pre-Chorus2 00:24
G-----------------------------------------------------------------------|
D-----------------------------------------------------------------------|
A-----------------------------------------------------------------------|
D---555-000-999-777-797-------------------------------------------------|X5

Pre-Chorus3 00:36
G------------------------------------------------------------------|
D------------------------------------------------------------------|
A------------------------------------------------------------------|
D---555-000-999-777-79-9-0-----------------------------------------|

Chorus 00:47
G----------------------------------------------------------------------------|
D----------------------------------------------------------------------------|
A----------------------------------------------------------------------------|
D---00-00h5555-000-0h7777-99997777-------------------------------------------|X2

G---------------------------------------------------------------------------|
D---------------------------------------------------------------------------|
A---------------------------------------------------------------------------|
D---55-555-500-077-755-555-599997777--55-555-500-077-7777-7\----------------|

Pre-Chorus4 1:11
G------------------------------------------------------------------------|
D------------------------------------------------------------------------|
A------------------------------------------------------------------------|
D---999-777-797----------------------------------------------------------|

Pre-Chorus2 X2
Pre-Chorus3 X1

Interlude 1:23
G-------------------------------------------------------------------------|
D-------------------------------------------------------------------------|
A-------------------------------------------------------------------------|
D---00000-00000---00-00-000-0-0000----------------------------------------|X2

Pre-Chorus5
G------------------------------------------------------------------------|
D------------------------------------------------------------------------|
A------------------------------------------------------------------------|
D---555-000-999-7777-----------------------------------------------------|

Chorus
End chorus line 1:57
G----------------------------------------------------------------------|
D-----------77-99------------------------------------------------------|
A---55-----------------------------------------------------------------|
D-------99-------------------------------------------------------------|

Break 1:59
G-------------------------------------------------------------------------|
D-------------------------------------------------------------------------|
A-------------------------------------------------------------------------|
D----0000-00-0000-00-00----0000-00-0000-00-00-----------------------------|X4

Pre-Chorus2 X1
Pre-Chorus5 X1
Chorus X1

Outro 2:56
G-------------------------------------------------------------------------|
D-------------------------------------------------------------------------|
A-------------------------------------------------------------------------|
D---50977-50977-50977-0000-00-0000-00-0-----------------------------------|


| /  slide up
| \  slide down
| h  hammer-on
| p  pull-off
| ~  vibrato
| +  harmonic
| x  Mute note
===============================================================================

            
            
Suggest correction
Creating personal tab
Creating personal tab
You can edit any tab online and save it as your Personal.

You can edit, replace or remove any tab part or add personal notes – all changes will be seen only by you.

Personal tabs can be accessed anytime from any device, even offline.
Learn more »
Give kudos to tab author, rate the tab!
1 2 3 4 5
comments
print report bad tab
guest
You may want to rate the tab now too:
select rating
Wanna post a correction for this tab? Suggest correction