Oops, an error
Loading. Please wait.

Men Are From Mars Women Are From Hell tab

version 2
version 2

Whole song

Interactive

21,966 views 6 this week
6 commentsread comments
1 2 3 4 5
x 8
add to favorites
×
Save as Personal and add changes to this tab that will be seen only by you. Learn more ›
×
You can save this tab as Personal to edit and correct it or add notes. All changes will be seen only by you. Learn more »
launch autoscroll
font size
0
reset
how to read this tab
guitar tuner
backing track
0:00
0:00
edit
Autoscroll
slow
fast
+/-
esc
set tempo
stop
Author
Difficulty
intermediate
All  Songs are tuned down a whole step. I call it D Standard. Pay 
to the string names. If you try to play it in Drop D it won't sound right.

   Intro
d|-------------------|
a|-------------------|
f|-------------------|
c|-8888888888888888--|
g|-7777777777777777--|
D|-------------------|

d|-----------------------------------------|
a|-----------------------------------------|
f|-----------------------------------------|
c|----------------------------------------9|
g|------------11-11-11-999-777-999-11-9767-|
D|-0-0-0-000-0-----------------------------|
         ***

d|------------------------------------------------|
a|------------------------------------------------|
f|------------------------------------------------|
c|------------------------------------------------|
g|------------11-11-11-999-777-999-------------7~-|
D|-0-0-0-000-0----------------------00-4b-00-4b---|
         ***                        **    **

d|-----------------------------------------|
a|-----------------------------------------|
f|-----------------------------------------|
c|----------------------------------------9|
g|------------11-11-11-999-777-999-11-9767-|
D|-0-0-0-000-0-----------------------------|
         ***
d|-----------------------------------------------|
a|-----------------------------------------------|
f|-----------------------------------------------|
c|----------------------------------------9-6667-|
g|------------11-11-11-999-777-999-11-9767--5555-|
D|-0-0-0-000-0-----------------------------------|
         ***


    Verse 1
d|-------------------------------------|
a|-------------------------------------|
f|-------------------------------------|
c|-2------6667-22-2222-22-2222-22-2222-|
g|-0-hold-5555-22-2222-22-2222-22-2222-|
D|-0-----------00-0000-00-0000-00-0000-|
                  ****    ****    ****


  Pre-Chorus (those are elevens not ones)
d|-------------------------------------------------|
a|-------------------------------------------------|
f|-------------------------------------------------|
c|-77-9-11-666---77-9-11-66---55-9-11-66---77------|
g|-77-9-11-777---77-9-11-77---77-9-11-77---77-9999-|
D|-55-7-99-444---55-7-99-44---55-7-99-44---55-8888-|


  1st Chorus
d|---------------------------------------------------|
a|---------------------------------------------------|
f|-6664644444------------66646444446-222222222222222-|
c|-6664644444-4442422222-66646444446-222222222222222-|
g|-4442422222-4442422222-44424222224-000000000000000-|
D|------------2220200000-----------------------------|

d|----------------------------------------------------------|
a|----------------------------------------------------------|
f|-6664644444------------66646444446-22-44-66----22-44------|
c|-6664644444-4442422222-66646444446-22-44-66-44-22-44-4444-|
g|-4442422222-4442422222-44424222224-00-22-44-44-00-22-3333-|
D|------------2220200000----------------------22------------|

   Intro again, but a little different
d|-----------------------------------------|
a|-----------------------------------------|
f|-----------------------------------------|
c|----------------------------------------9|
g|------------11-11-11-999-777-999-11-9767-|
D|-0-0-0-000-0-----------------------------|
         ***

d|-----------------------------------------------|
a|-----------------------------------------------|
f|-----------------------------------------------|
c|-----------------------------------------------|
g|------------11-11-11-999-777-999---------------|
D|-0-0-0-000-0----------------------00-4b-000000-|
         ***                        **    ******

d|-----------------------------------------|
a|-----------------------------------------|
f|-----------------------------------------|
c|----------------------------------------9|
g|------------11-11-11-999-777-999-11-9767-|
D|-0-0-0-000-0-----------------------------|
         ***
d|-------------------------------------------------|
a|-------------------------------------------------|
f|-------------------------------------------------|
c|----------------------------------------9--------|
g|------------11-11-11-999-777-999-11-9767-----7---|
D|-0-0-0-000-0------------------------------079-97-|
         ***

  Verse 2
d|----------------------|
a|----------------------|
f|---------------8------|
c|-2------6------x------|
g|-2-hold-7-hold-6-hold-|
D|-0------4------7------|

d|--------------------------------------------------|
a|--------------------------------------------------|
f|--------------------------------------------------|
c|-2------6-66-6-66-9-99-9-99-10-10--77-7-77-7-9999-|
g|-2-hold-7-77-7-77-9-99-9-99-11-11--77-7-99-9-9999-|
D|-0------4-44-4-44-7-77-7-77-8--8---99-9-99-9-7777-|
            **   **   **   **        **   **   ****

   Breakdown
d|------------------------------------------------------------------------|
a|------------------------------------------------------------------------|
f|------------------------------------------------------------------------|
c|-2222-2-2222-8-7-5--222-------222------22-22-22-8-7-5--222-----222------|
g|-2222-2-2222-8-7-5--222-------222------22-22-22-8-7-5--222-----222------|
D|-0000-0-0000-6-5-3b-000-slide-000-345b-00-00-00-6-5-3b-000slide000-234b-|
   ***  * ***         ***       ***      ** ** **        ***     ***

d|------------------------------------------------------------------------|
a|------------------------------------------------------------------------|
f|------------------------------------------------------------------------|
c|-2222-2-2222-8-7-5--222-------222------22-22-22-8-7-5--222-----222------|
g|-2222-2-2222-8-7-5--222-------222------22-22-22-8-7-5--222-----222------|
D|-0000-0-0000-6-5-3b-000-slide-000-345b-00-00-00-6-5-3b-000slide000-234b-|
   ***  * ***         ***       ***      ** ** **        ***     ***


  Pre-Chorus
d|-------------------------------------------------|
a|-------------------------------------------------|
f|-------------------------------------------------|
c|-77-9-11-666---77-9-11-66---55-9-11-66---77------|
g|-77-9-11-777---77-9-11-77---77-9-11-77---77-9999-|
D|-55-7-99-444---55-7-99-44---55-7-99-44---55-8888-|


  Last Chorus
d|------------------------------------------|
a|------------------------------------------|
f|-66646-4---------66646-4--222222222222222-|
c|-66646-4-44424-2-66646-4--222222222222222-|
g|-44424-2-44424-2-44424-2--000000000000000-|
D|---------22202-0--------------------------|

d|---------------------------------------------------|
a|---------------------------------------------------|
f|-6664644444------------66646444446-222222222222222-|
c|-6664644444-4442422222-66646444446-222222222222222-|
g|-4442422222-4442422222-44424222224-000000000000000-|
D|------------2220200000-----------------------------|

d|----------------------------------------------------------|
a|----------------------------------------------------------|
f|-6664644444------------66646444446-22-44-66----22-44------|
c|-6664644444-4442422222-66646444446-22-44-66-44-22-44-4444-|
g|-4442422222-4442422222-44424222224-00-22-44-44-00-22-3333-|
D|------------2220200000----------------------22------------|

d|-----------|
a|---------4-|
f|-6666666-6-|
c|-6666666-6-|
g|-4444444-4-|
D|-----------|

            
            
Suggest correction
Creating personal tab
Creating personal tab
You can edit any tab online and save it as your Personal.

You can edit, replace or remove any tab part or add personal notes – all changes will be seen only by you.

Personal tabs can be accessed anytime from any device, even offline.
Learn more »
comments
print report bad tab
6 comments total. Showing first comments.
+1 reply
Xvendo. 10 Aug 22, 2008 07:18 PM

The intro is basically right.
But...

d|--------------------------------------|
a|--------------------------------------|
f|--------------------------------------|
c|-------------------------------------7|
a|------------999--77~--555--777--97545-|
D|-0-0-00000----------------------------|
.....

+1 reply
j0eyxcore 305 Jun 20, 2009 11:51 AM

this is a really good tab. well done
n Xvendo, u r wrong, thats how you play it in Drop D, watch how they play this in the acoustic video, its obviously D Standard

0 reply
ramjam900 41 Aug 13, 2010 11:16 AM

perfect..might be missing a chord at the end of verse 2 before the breakdown

guest
You may want to rate the tab now too:
select rating
Wanna post a correction for this tab? Suggest correction