Oops, an error
Loading. Please wait.

Men Are From Mars Women Are From Hell tab

version 3
version 3

Whole song

Interactive

3,151 views 1 this week
2 commentsread comments
1 2 3 4 5
1 last vote to show rating
add to favorites
×
Save as Personal and add changes to this tab that will be seen only by you. Learn more ›
×
You can save this tab as Personal to edit and correct it or add notes. All changes will be seen only by you. Learn more »
launch autoscroll
font size
0
reset
how to read this tab
guitar tuner
backing track
0:00
0:00
edit
Autoscroll
slow
fast
+/-
esc
set tempo
stop
Author
Difficulty
ENJOY!
b- bend
/- slide
.- pm
h- hammer
p- pull off


Intro:

e|-------------------------------------------------------------------------|
B|-------------------------------------------------------------------------|
G|-------------------------------------------------------------------------|
D|--6-6-6-6-6-6-6-6-6-6-6-6-6-6-6-6----------------------------------------|
A|--5-5-5-5-5-5-5-5-5-5-5-5-5-5-5-5----------------------------------------|
E|---------------------------------12/-------------------------------------|

Main Riff:

e|-------------------------------------------------------------------------|
B|-------------------------------------------------------------------------|
G|-------------------------------------------------------------------------|
D|------------------------------------------------------7------------------|
A|-----------------9-9-9--7-7b--5-5-5--7-7-7--9-7-5-7-9--------------------|
D|--0--0--0-00000----------------------------------------------------------|

e|-------------------------------------------------------------------------|
B|-------------------------------------------------------------------------|
G|-------------------------------------------------------------------------|
D|-------------------------------------------------------------------------|
A|-----------------9-9-9--7-7b--5-5-5--7-7-7-------------------------------|
D|--0--0--0-00000----------------------------00-4b--00-4-5b----------------|


e|-------------------------------------------------------------------------|
B|-------------------------------------------------------------------------|
G|-------------------------------------------------------------------------|
D|------------------------------------------------------7------------------|
A|-----------------9-9-9--7-7b--5-5-5--7-7-7--9-7-5-7-9--------------------|
D|--0--0--0-00000----------------------------------------------------------|

e|-------------------------------------------------------------------------|
B|-------------------------------------------------------------------------|
G|-------------------------------------------------------------------------|
D|------------------------------------------------------7----3---4-6-------|
A|-----------------9-9-9--7-7b--5-5-5--7-7-7--9-7-5-7-9----2---2-----------|
D|--0--0--0-00000----------------------------------------------------------|

VERSE 1:

e|-------------------------------------------------------------------------|
B|-------------------------------------------------------------------------|
G|-------------------------------------------------------------------------|
D|---444------557----444---------------------------------------------------|
A|---444-(x3)-3352---444-(x5)----------------------------------------------|
D|---222---------0---222------2/-------------------------------------------|
     ...             ...
PRE-CHORUS: (x2)

e|-------------------------------------------------------------------------|
B|-------------------------------------------------------------------------|
G|-------------------------------------------------------------------------|
D|-------------------------------------------------------------------------|
A|------------12h13p12----------15-13-12----------12---------------10-13-12|
D|---13-12-13----------15-13-12----------13-12-13----13-12-10-12-13--------|


CHORUS:

e|-------------------------------------------------------------------------|
B|-------------------------------------------------------------------------|
G|-------------------------------------------------------------------------|
D|--11111111-7-11-7-77777--4444-2-2-2-22222--11111111-7-11-7-77777---------|
A|--11111111-7-11-7-77777--4444-2-4-2-22222--11111111-7-11-7-77777---------|
D|--9-9-9-9--9-9--9-99999--2222-0-2-0-00000--9-9-9-9--9-9--9-99999---------|

e|-------------------------------------------------------------------------|
B|-------------------------------------------------------------------------|
G|-------------------------------------------------------------------------|
D|777777777777-------------------------------------------------------------|
A|777777777777-------------------------------------------------------------|
D|555555555555-------------------------------------------------------------|

Second Time:

e|-------------------------------------------------------------------------|
B|-------------------------------------------------------------------------|
G|-------------------------------------------------------------------------|
D|--11111111-7-11-7-77777--4444-2-2-2-22222--11111111-7-11-7-77777---------|
A|--11111111-7-11-7-77777--4444-2-4-2-22222--11111111-7-11-7-77777---------|
D|--9-9-9-9--9-9--9-99999--2222-0-2-0-00000--9-9-9-9--9-9--9-99999---------|

e|-------------------------------------------------------------------------|
B|-------------------------------------------------------------------------|
G|-------------------------------------------------------------------------|
D|---777-999-111111-444-777-999-11-----------------------------------------|
A|---777-999-111111-444-777-999-11-----------------------------------------|
D|---555-777-9-9-9--222-555-777-9--9//-------------------------------------|

Main Riff Again:

e|-------------------------------------------------------------------------|
B|-------------------------------------------------------------------------|
G|-------------------------------------------------------------------------|
D|------------------------------------------------------7------------------|
A|-----------------9-9-9--7-7b--5-5-5--7-7-7--9-7-5-7-9--------------------|
D|--0--0--0-00000----------------------------------------------------------|

e|-------------------------------------------------------------------------|
B|-------------------------------------------------------------------------|
G|-------------------------------------------------------------------------|
D|-------------------------------------------------------------------------|
A|-----------------9-9-9--7-7b--5-5-5--7-7-7-------4444--------------------|
D|--0--0--0-00000----------------------------00-4b-4444--------------------|
                                                   ....

e|-------------------------------------------------------------------------|
B|-------------------------------------------------------------------------|
G|-------------------------------------------------------------------------|
D|------------------------------------------------------7------------------|
A|-----------------9-9-9--7-7b--5-5-5--7-7-7--9-7-5-7-9--------------------|
D|--0--0--0-00000----------------------------------------------------------|

e|-------------------------------------------------------------------------|
B|-------------------------------------------------------------------------|
G|-------------------------------------------------------------------------|
D|------------------------------------------------------7------------0~----|
A|-----------------9-9-9--7-7b--5-5-5--7-7-7--9-7-5-7-9------0-2-5-2-0~----|
D|--0--0--0-00000------------------------------------------0---------0~----|

VERSE 2:

e|---------------------------------------------------------------------------|
B|---------------------------------------------------------------------------|
G|---------------------------------------------------------------------------|
D|---6~----7~--------2~------------------------------------------------------|
A|---6~----7~--------2~---00-7-00-9-00-6-00-4--11111111111111111111-777hold--|
E|--4~----5~---5/---0~---00-5-00-7-00-4-00-2--9-9-9-9-9-9-9-9-9-9--999-------|
                          ..   ..   ..   ..
BREAKDOWN:

e|---------------------------------------------------------------------------|
B|---------------------------------------------------------------------------|
G|---------------------------------------------------------------------------|
D|--00-----------------------------------------------------------------------|
A|--00-----------------------------------------------------------------------|
E|--00-----------------------------------------------------------------------|
     .


e|---------------------------------------------------------------------------|
B|---------------------------------------------------------------------------|
G|---------------------------------------------------------------------------|
D|---------------------------------------------------------------------------|
A|---------------------------------------------------------------------------|
E|-00-000--6-5-3-00-000-2-3-4b-00-000--6-5-3-00-000-2-3-4-00-000-6-5-3-------|
    .. ...        .. ...        .. ...        .. ...       .. ...
e|-------------------------------------------------------------------------|
B|-------------------------------------------------------------------------|
G|-------------------------------------------------------------------------|
D|-------------------------------------------------------------------------|
A|-------------------------------------------------------------------------|
E|--00-000-2-3-4b--00-000-6-5-3-00-00000-----------------------------------|
    .. ..          .. ...       .. .....

PAUSE

PRE CHORUS AGAIN: X1


e|-------------------------------------------------------------------------|
B|-------------------------------------------------------------------------|
G|-------------------------------------------------------------------------|
D|-------------------------------------------------------------------------|
A|------------12h13p12----------15-13-12----------12---------------10-13-12|
E|-13-12-13----------15-13-12----------13-12-13----13-12-10-12-13----------|

CHORUS AGAIN:

e|---------------------------------------------------------------------------|
B|---------------------------------------------------------------------------|
G|---------------------------------------------------------------------------|
D|--11111111-7-11-7~--4444-2-2-2~--11111111-7-11-7~--------------------------|
A|--11111111-7-11-7~--4444-2-4-2~--11111111-7-11-7~--------------------------|
E|-9-9-9-9--9-9--9~--2222-0-2-0~--9-9-9-9--9-9--9~---------------------------|

e|---------------------------------------------------------------------------|
B|---------------------------------------------------------------------------|
G|---------------------------------------------------------------------------|
D|777777777777---------------------------------------------------------------|
A|777777777777---------------------------------------------------------------|
E|5555555555-----------------------------------------------------------------|

Second Time:

e|---------------------------------------------------------------------------|
B|---------------------------------------------------------------------------|
G|---------------------------------------------------------------------------|
D|--11111111-7-11-7-77777--4444-2-2-2-22222--11111111-7-11-7-77777-----------|
A|--11111111-7-11-7-77777--4444-2-4-2-22222--11111111-7-11-7-77777-----------|
E|-9-9-9-9--9-9--9-99999--2222-0-2-0-00000--9-9-9-9--9-9--9-99999------------|

e|---------------------------------------------------------------------------|
B|---------------------------------------------------------------------------|
G|---------------------------------------------------------------------------|
D|---777-999-111111-444-777-999-11-11-----7-----7----------------------------|
A|---777-999-111111-444-777-999-11-11-X10-7-X10-7-X10------------------------|
E|--555-777-9-9-9--222-555-777-9--9------9-----5-----------------------------|


e|---------------------------------------------------------------------------|
B|---------------------------------------------------------------------------|
G|---------------------------------------------------------------------------|
D|---777-999-111111-444-777-999-11--44444444444~-----------------------------|
A|---777-999-111111-444-777-999-11--44444444444~-----------------------------|
E|--555-777-9-9-9--222-555-777-9---22222222222~------------------------------|

            
            
Suggest correction
Creating personal tab
Creating personal tab
You can edit any tab online and save it as your Personal.

You can edit, replace or remove any tab part or add personal notes – all changes will be seen only by you.

Personal tabs can be accessed anytime from any device, even offline.
Learn more »
Give kudos to tab author, rate the tab!
1 2 3 4 5
comments
print report bad tab
2 comments total.
-1 reply
elleild 121 Feb 07, 2010 11:14 PM

Almost right, as it is in D Standard and not E standard some notes are off too but overall good

0 reply
vagina4me 10 Mar 05, 2010 06:17 AM

only the root notes

guest
You may want to rate the tab now too:
select rating
Wanna post a correction for this tab? Suggest correction