Oops, an error
Loading. Please wait.

Semi Charmed Life intro tab

version 1
version 1

Intro

Interactive

17,244 views 6 this week
3 commentsread comments
1 2 3 4 5
2 more votes to show rating
add to favorites
×
Save as Personal and add changes to this tab that will be seen only by you. Learn more ›
×
You can save this tab as Personal to edit and correct it or add notes. All changes will be seen only by you. Learn more »
launch autoscroll
font size
0
reset
how to read this tab
guitar tuner
edit
Autoscroll
slow
fast
+/-
esc
set tempo
stop
-------------------------------------------------------------------------------
                             Semi Charmed Life - Four Year Strong
-------------------------------------------------------------------------------
Tabbed by:Zack Holden
Email:zackdh1992@yahoo.com
myspace.com/zackdh92
Tuning:Drop D Tuning

just the intro !!!
i love these song and FYS but just mess around with that and u should get the rhythm.


e|---------------------------------------------------------------------------|
B|---------------------------------------------------------------------------|
G|---------------------------------------------------------------------------|
D|-5-5-5-------------------10--1010--10-1010-10101010------------------------|
A|-5-5-5------9--9--9h10---10--1010--10-1010-10101010------------------------|
D|-5-5-5------12-12-12-----10--1010--10-1010-10101010------------------------|


            
            
Suggest correction
Creating personal tab
Creating personal tab
You can edit any tab online and save it as your Personal.

You can edit, replace or remove any tab part or add personal notes – all changes will be seen only by you.

Personal tabs can be accessed anytime from any device, even offline.
Learn more »
Give kudos to tab author, rate the tab!
1 2 3 4 5
comments
print report bad tab
3 comments total.
0 reply
planbdude 10 Jul 31, 2009 04:55 AM

this is perfect man!
can you tab the entire song?
that'd be tight yo

0 reply
yeahrightmilk 102 Aug 01, 2009 11:02 AM

well i tried in should be up soon its in guitar pro!!

0 reply
elleild 121 Feb 26, 2010 12:45 AM

Its easier to play
e|-----------------------------------------------------|
B|-----------------------------------------------------|
G|-----------------------------------------------------|
D|-5-5-5------4--4--4h5---5--55--5-55-5555-------------|
A|-5-5-5------5--5--5-5---3--33--3-33-3333-------------|
D|-5-5-5-----------------------------------------------|

guest
You may want to rate the tab now too:
select rating
Wanna post a correction for this tab? Suggest correction