Oops, an error
Loading. Please wait.

Tonight We Feel Alive On A Saturday bass

786 views 1 this week
no commentswrite comment
1 2 3 4 5
2 more votes to show rating
add to favorites
×
Save as Personal and add changes to this tab that will be seen only by you. Learn more ›
×
You can save this tab as Personal to edit and correct it or add notes. All changes will be seen only by you. Learn more »
launch autoscroll
font size
0
reset
guitar tuner
edit
Autoscroll
slow
fast
+/-
esc
set tempo
stop
Hey, So the only other bass tab of this song on here is really bad and I
dunno what happened to the good one, so luckily I had it memorized from
playing so here it is, hope you enjoy :)This isn't originally by me, I just
had it learnt off.

-----------------------------------------------------------------------------
        Tonight We Feel Alive (On A Saturday) - Four Year Strong
-----------------------------------------------------------------------------
Tabbed by: Kieran O'Sullivan (original unknown, retabbed from memory)
E-mail: Bass-AFS@hotmail.com

Tuning: DADG

Main Riff/intro/chorus/post-chorus/outro
G|---------------------------------------------------------------------------|
D|---------------------------------------------------------------------------|
A|---------------------------------------------------------------------------|
D|77777777-10101010-3333-55555555-10101010-5555-33333333-10101010-555-7~-----|

Verse
G|---------------------------------------------------------------------------|
D|---------------------------------------------------------------------------|
A|--8-7-0-3-3-3-3----8-7-0-5-5-5-5-------------------------------------------|
D|77--------------55--------------3333333333333333-77777777-55555555---------|

G|---------------------------------------------------------------------------|
D|---------------------------------------------------------------------------|
A|---------------------------------------------------------------------------|
D|0000000000000000-3333333333333333-7777777777777777-5555555555555555--------|

Pre-Chorus
G|---------------------------------------------------------------------------|
D|---------------------------------------------------------------------------|
A|---------------------------------------------------------------------------|
D|3--------3-2--------00-00-03~--------07~-----------------------------------|

Verse 2
G|---------------------------------------------------------------------------|
D|---------------------------------------------------------------------------|
A|---8-7-0-3-3-3-3----8-7-0-5~-----------------------------------------------|
D|77---------------55----------3333333333333333-77777777-55555555------------|

G|---------------------------------------------------------------------------|
D|---------------------------------------------------------------------------|
A|---------------------------------------------------------------------------|
D|0000000000000000-3333333333333333-7777777777777777-5555555555555555--------|

Bridge (part 1) (x2)
G|---------------------------------------------------------------------------|
D|---------------------------------------------------------------------------|
A|--8-7-0-3-3-3-3---8-7-0-5-5-5-5--------------------------------------------|
D|7---------------5---------------33333333-7777-5555-------------------------|

G|----------------------------------------------------------------------------|
D|----------------------------------------------------------------------------|
A|5555555-7-88888888-1010101010101010-1212121212121212------------------------|
D|----------------------------------------------------------------------------|

G|---------------------------------------------------------------------------|
D|---------------------------------------------------------------------------|
A|5555555-7-88888888-1212121212121212-1010101010101010-----------------------|
D|---------------------------------------------------------------------------|


Order:
intro
verse
pre-chorus
chorus
post-chorus
verse 2
pre-chorus
chorus
bridge part 1
bridge part 2
pre-chorus
chorus
outro


| /  slide up
| \  slide down
| h  hammer-on
| p  pull-off
| ~  vibrato
| +  harmonic
| x  Mute note
===============================================================================

            
            
Suggest correction
Creating personal tab
Creating personal tab
You can edit any tab online and save it as your Personal.

You can edit, replace or remove any tab part or add personal notes – all changes will be seen only by you.

Personal tabs can be accessed anytime from any device, even offline.
Learn more »
Give kudos to tab author, rate the tab!
1 2 3 4 5
comments
print report bad tab
guest
You may want to rate the tab now too:
select rating
Wanna post a correction for this tab? Suggest correction