Oops, an error
Loading. Please wait.

Love Song Bass Tab

3,194 views 1 this week
no commentswrite comment
1 2 3 4 5
please rate
add to favorites
launch autoscroll
font size
0
reset
guitar tuner
Autoscroll
slow
fast
+/-
esc
set tempo
stop
Help us to improve Ultimate-Guitar.com Take our survey!
×
Author
 Intro/Verse

 Don't play the first two times


G|---------------------------------------|
D|--------------------------222-33333----|
A|----------11111-333-55555--------------|
E|33333-555---------------------------333| x 2


 Prechorus

G|------------------------------------|
D|------------------------------------|
A|------------------11111111-33333333-|
E|33333333-55555555-------------------|

G|----------------------------|
D|----------------------------|
A|------------------111111111-|
E|33333333-55555555-----------|


 Chorus

G|--------------------------------|
D|--------------------------------|
A|--------3-3-3-1---------1-1-1-1-|
E|3-3-3-3---------5-5-5-5---------| x 2

G|------------------------------------------|
D|------------------------------------------|
A|----------------5~-5-3-2-2-1-1-1-1-3-3-3-3|
E|3-3-3-3-5-5-5-5---------------------------|

 
 Verse

G|---------------------------------------|
D|--------------------------222-33333----|
A|----------11111-333-55555--------------|
E|33333-555---------------------------333| x 4


 Perchorus

G|------------------------------------|
D|------------------------------------|
A|------------------11111111-33333333-|
E|33333333-55555555-------------------|

G|---------------------|
D|---------------------|
A|------------------1~-|
E|33333333-55555555----|


 Chorus

G|--------------------------------|
D|--------------------------------|
A|--------3-3-3-1---------1-1-1-1-|
E|3-3-3-3---------5-5-5-5---------| x 2

G|------------------------------------------|
D|------------------------------------------|
A|----------------5~-5-3-2-2-1-1-1-1-3-3-3-3|
E|3-3-3-3-5-5-5-5---------------------------|


 Bridge

G|------------------------------------------|
D|------------------------------------------|
A|------5555\-------5555---000-111-3333333~-|
E|------------------------------------------|


 Chorus

 Don't play the first time

G|-----|
D|-----|
A|1111-|
E|-----|

G|--------------------------------|
D|--------------------------------|
A|--------3-3-3-1---------1-1-1-1-|
E|3-3-3-3---------5-5-5-5---------| x 2

G|-------------------------------------------------|
D|-------------------52~-23~-----------------------|
A|----------------5~---------5-3-2----1-1-1-1-3--3-|
E|3-3-3-3-5-5-5-5-------------------3--------------|

 
 Outro

G|---------------------------------------|
D|--------------------------222-33333----|
A|----------11111-333-55555--------------|
E|33333-555---------------------------333| x 2


Mad as song! But they don't sing the chorus right and they have to cram up a lot 
of words. But otherwise, mad as song!
Suggest correction
Give kudos to tab author, rate the tab!
1 2 3 4 5
comments
print report bad tab
guest
You may want to rate the tab now too:
select rating
Please do not post tabs as comments. Select "correction" instead!