Oops, an error
Loading. Please wait.

Love Song Tab

13,698 views 3 this week
3 commentsread comments
1 2 3 4 5
excellent!
x 12
add to favorites
launch autoscroll
font size
0
reset
how to read this tab
guitar tuner
Tab Pro tools
  • play this tab
  • loop segment
  • change instrument
  • show fretboard
  • metronome
×
Best way to learn
"Love Song"
Autoscroll
slow
fast
+/-
esc
set tempo
stop
Contributor
-----------------------------------------------------
                             Love Song - Four Year Strong
-------------------------------------------------------------------------------
Tabbed by: BliNKTwIcE22
Email: spankdaddy89@hotmail.com

Tuning: Standard

Note: This is my first full song tabbed out, after listening to it multiple times 
by ear. The little guitar riff may be off a bit, but I'm open to any comments. Please comment!



  (Intro/verse)
e|-------------------------------------------------------------------------|
B|-------------------------------------------------------------------------|
G|-----------------------------------------------(x4)----------------------|
D|-----------------5\7-7777-9\10-10101010----------------------------------|
A|-5-5555-7\8-8888-3\5-5555-7\8--8-8-8-8--334------------------------------|
E|-3-3333-5\6-6666------------------------112------------------------------|
     ....     ....     ....      . . . .
  (Pre-Chorus 1)
e|-------------------------------------------------------------------------|
B|-------------------------------------------------------------------------|
G|-----------------------------------------------(first time)--------------|
D|-------------------------------------------------------------------------|
A|-55555555-77777777-88888888-1010101010101010-----------------------------|
E|-33333333-55555555-66666666-8-8-8-8-8-8-8-8------------------------------|
  
e|-------------------------------------------------------------------------|
B|-------------------------------------------------------------------------|
G|--------------------------------------(second time)----------------------|
D|-------------------------------------------------------------------------|
A|-55555555-77777777-88888888-8--------------------------------------------|
E|-33333333-55555555-66666666-6--------------------------------------------|
 
(Chorus)
e|-------------------------------------------------------------------------|
B|-------------------------------------------------------------------------|
G|------------------------------------------------(x2)---------------------|
D|---------5-5-5-3-2-2-2-2-3-3-3-3-----------------------------------------|
A|-5-5-5-5-3-3-3-1-0-0-0-0-1-1-1-1-----------------------------------------|
E|-3-3-3-3-----------------------------------------------------------------|
  
 (Post-Chorus 1)
e|-------------------------------------------------------------------------|
B|-------------------------------------------------------------------------|
G|-------------------------------------------------------------------------|
D|-----------------7--6/5-4-4-4-4-3-3-3-3--5--5----------------------------|
A|-5-5-5-5-7-7-7-7-5--4/3-2-2-2-2-1-1-1-1--3--3-3\5-5555-7\8-8888----------|
E|-3-3-3-3-5-5-5-5------------------------------1\3-3333-5\6-6666----------|
                                                    ....     ....
e|-------------------------------------------------------------------------|
B|-------------------------------------------------------------------------|
G|-------------------------------------------------------------------------|
D|-5\7-7777-9\10-10101010--------------------------------------------------|
A|-3\5-5555-7\8--8-8-8-8---------------------------------------------------|
E|-------------------------------------------------------------------------|
       ....      . . . .
  (verse)
e|-------------------------------------------------------------------------|
B|-------------------------------------------------------------------------|
G|-----------------------------------------------(x4)----------------------|
D|-----------------5\7-7777-9\10-10101010----------------------------------|
A|-5-5555-7\8-8888-3\5-5555-7\8--8-8-8-8--334------------------------------|
E|-3-3333-5\6-6666------------------------112------------------------------|
     ....     ....     ....      . . . .
  (Pre-chorus 2)
e|-------------------------------------------------------------------------|
B|-----------------------------------------------(first time)--------------|
G|-------------------------------------------------------------------------|
D|-------------------------------------------------------------------------|
A|-55555555-77777777-88888888-1010101010101010-----------------------------|
E|-33333333-55555555-66666666-8-8-8-8-8-8-8-8------------------------------|

e|-------------------------------------------------------------------------|
B|-------------------------------------------------------------------------|
G|-------------------------------------------------------------------------|
D|-------------------------------------------------------------------------|
A|-55555555-77777777-8~~~~~~~-8--------------------------------------------|
E|-33333333-55555555-6~~~~~~~-6--------------------------------------------|

  (Chorus)
e|-------------------------------------------------------------------------|
B|-------------------------------------------------------------------------|
G|------------------------------------------------(x2)---------------------|
D|---------5-5-5-3-2-2-2-2-3-3-3-3-----------------------------------------|
A|-5-5-5-5-3-3-3-1-0-0-0-0-1-1-1-1-----------------------------------------|
E|-3-3-3-3-----------------------------------------------------------------|

  (Post-chorus 2)
e|-------------------------------------------------------------------------|
B|-------------------------------------------------------------------------|
G|-------------------------------------------------------------------------|
D|-----------------7~6-5-4~-3-3-3-3-----0-0-------------------------------|
A|-5-5-5-5-7-7-7-7-5~4-3-2~-1-1-1-1-3~2~0-0--------------------------------|
E|-3-3-3-3-5-5-5-5------------------1~0~-----------------------------------|

e|-------------------------------------------------------------------------|
B|-------------------------------------------------------------------------|
G|-------------------------------------------------------------------------|
D|-77777777-------------------------------------77777777-------------------|
A|-55555555-77777777-88888888-1010101010101010--55555555-77777777----------|
E|----------55555555-66666666-8-8-8-8-8-8-8-8------------55555555----------|
   ........ ........ ........ . . . . . . . .       .... ........
e|-------------------------------------------------------------------------|
B|-------------------------------------------------------------------------|
G|-------------------------------------------------------------------------|
D|---------------------------7777----------------------------------3-3-3-3-|
A|-88888888-1010101010101010-5555-77-8888-10-10-10-10-10-10-10~~~~-1-1-1-1-|
E|-66666666-8-8-8-8-8-8-8-8-------55-6666-8--8--8--8--8--8--8~~~~~---------|
   ........ . . . . . . . .
  (Chorus)
e|-------------------------------------------------------------------------|
B|-------------------------------------------------------------------------|
G|------------------------------------------------(x2)---------------------|
D|---------5-5-5-3-2-2-2-2-3-3-3-3-----------------------------------------|
A|-5-5-5-5-3-3-3-1-0-0-0-0-1-1-1-1-----------------------------------------|
E|-3-3-3-3-----------------------------------------------------------------|
  
 (Outro)
e|-------------------------------------------------------------------------|
B|-------------------------------------------------------------------------|
G|-------------------------------------------------------------------------|
D|-------------------------------------7-7-7-7/4-4-4-4-3-3-3-3-5-5---------|
A|-5-5-5-5-7-7-7-7-8-8-8-8-10-10-10-10-5-5-5-5/2-2-2-2-1-1-1-1-3-3---------|
E|-3-3-3-3-5-5-5-5-6-6-6-6-8--8--8--8--------------------------------------|

e|-------------------------------------------------------------------------|
B|--------------------------------------------(first time)-----------------|
G|-------------------------------------------------------------------------|
D|------------------5\7-7777-9\10-10101010---------------------------------|
A|3\5-5555-7\8-8888-3\5-5555-7\8--8-8-8-8--334-----------------------------|
E|1\3-3333-5\6-6666------------------------112-----------------------------|
     ....     ....     ....      . . . .


e|-------------------------------------------------------------------------|
B|--------------------------------------------(second time)----------------|
G|-------------------------------------------------------------------------|
D|------------------5\7-7777-9-9-10~~~~~~~--(let ring)---------------------|
A|3\5-5555-7\8-8888-3\5-5555-7-7--8~~~~~~~---------------------------------|
E|1\3-3333-5\6-6666--------------------------------------------------------|
     ....     ....     .... 
  (Little guitar riff)     
e|-11---------------13~----------------------------------------------------|
B|---10--------------------------------------------------------------------|
G|-----10------10----------------------------------------------------------|
D|-------12~-12--12--------------------------------------------------------|
A|-------------------------------------------------------------------------|
E|-------------------------------------------------------------------------|



| /  slide up
| \  slide down
| h  hammer-on
| p  pull-off
| ~  vibrato
| +  harmonic
| x  Mute note
===============================================================================
comments
print report bad tab
3 comments total.
0 reply
Sam Rulez D00d wrote on March 29 2009, 12:17 pm

good for your first tab! but im pretty sure they play in drop d and some of the chords arent just straight power chords. oh and not to be a jerk or anything but you added an s at the end of "year". u should fix that so that people can find your tab.

i think they play the chords like this: (i didnt bother wit the
strumming)
|---------------------|
|---------------------|
|---------------------|
|-5-7-8-10-12-14-15-4-|
|-5-8-8-10-12-15-15-5-|
|-5-7-8-10-12-14-15-4-| x4

|----------------|
|----------------|
|----------------|
|-5-7-8-10-5-7-8-|
|-5-7-8-10-5-7-8-|
|-5-7-8-10-5-7-8-|

and the chorus:
|-----------------------------------|
|-----------------------------------|
|-----------------------------------|
|-5-10-8-7-8----5-7-12-x-10-9--8-10-|
|-5-10-8-8-8-x2-5-7-12-x-10-10-8-10-|
|-5-10-8-7-8----5-7-12-x-10-9--8-10-|

im pretty sure its right.
ill give u 4 stars cuz u did it mostly right.

0 reply
Metal_Hed_23 wrote on August 13 2009, 06:19 pm

actually its D Standard.. but the roots of your chords are correct

0 reply
bricefallsfast wrote on October 29 2009, 11:17 am

very good tab man but had troble finding it on account of its four year strong not years but good job

I want to post or [tab]
guest
You may want to rate the tab now too:
select rating
Please do not post tabs as comments. Select "correction" instead!