Oops, an error
Loading. Please wait.

Security Of The Familiar The Tranquility Of Repetition Tab

1,753 views 3 this week
no commentswrite comment
1 2 3 4 5
please rate
add to favorites
launch autoscroll
font size
0
reset
how to read this tab
guitar tuner
Autoscroll
slow
fast
+/-
esc
set tempo
stop
Help us to improve Ultimate-Guitar.com Take our survey!
×
Difficulty
Tuning
intermediate
D G C F A D
-------------------------------------------------------------------------------
The Security of the Familiar, the Tranquility of Repetition-Four Year Strong
-------------------------------------------------------------------------------
Tabbed by:Will
Email:Wchristensen27@yahoo.com

Tuning:Drop D
Figure out the rhythm, palm muting and accents its pretty easy so. good luck!

intro/verse
e|-----------------------------------------------------------------------------|
B|-----------------------------------------------------------------------------|
G|-----------------------------------------------------------------------------|
D|------3---3--------3----3----------3----3--------3---3-----------------------|
A|--1-1---1---1----------------------------------------------------------------|
E|---------------5-5----5----5---0-0----0---0--0-0---0----0--------------------|
Verse
e|--------------------------------------------------------------------------------|
B|--------------------------------------------------------------------------------|
G|--------------------------------------------------------------------------------|
D|--3--5--0-----------------------------------------------------------------------|
A|--1--5--0-----------------------------------------------------------------------|
E|-----5--0-----------------------------------------------------------------------|
Pre-Chorus
e|-----------------------------------------------------------------------------------|
B|-----------------------------------------------------------------------------------|
G|-----------------------------------------------------------------------------------|
D|---3---3--5--5/7-------------------------------------------------------------------|
A|---1---3--3--5/7-------------------------------------------------------------------|
E|-------3-----5/7-------------------------------------------------------------------|
Chorus
e|-------------------------------------------------------------------------------|
B|-------------------------------------------------------------------------------|
G|----7--------------------------------------------------------------------------|
D|---------------------3---------------------------------------------------------|
A|----5--55-33--11-0--3----------------------------------------------------------|
E|---------------------3--33-55-77-3---------------------------------------------|
Chorus 2
e|----------------------------------------------------------------------------------|
B|----------------------------------------------------------------------------------|
G|----------------------------------------------------------------------------------|
D|--3--3--5--5-7--------------------------------------------------------------------|
A|--1--3--3--5-7--------------------------------------------------------------------|
E|-----3-----5-7--------------------------------------------------------------------|
Bridge
e|---------------------------------------------------------------------------|
B|---------------------------------------------------------------------------|
G|----9-10-------------------------------------------------------------------|
D|---------------------------------------------------------------------------|
A|----------10-12--7-5-------------------------------------------------------|
E|---0-----0------0----0-5-7-0-5-3-------------------------------------------|

e|---------------------I---------------------------------------------------------|
B|---------------------I---------------------------------------------------------|
G|---------------------I---------------------------------------------------------|
D|--3---------5------3-I--7--5--3-5-----3-5--------------------------------------|
A|--1---------5------3-I--5--3--3-5-----3-5--------------------------------------|
E|------------5------3-I--------3-5------3-5-------------------------------------|

Then play the Chorus again, the Verse with out palm muting and thats it!


************************************

| /   slide up
| \   slide down
| h   hammer-on
| p   pull-off
| ~   vibrato
| +   harmonic
| x   Mute note
| b   Bend
| pb  Pre-bend
| br  Bend release
| pbr Pre-bend release
| brb Bend release bend

************************************
Suggest correction
What's this?
You can suggest a correction to this tab. Community and Mods will review your correction and vote to approve or reject it.
comments
We did not receive enough feedback on this tab! Please rate:
print report bad tab
1 2 3 4 5
guest
You may want to rate the tab now too:
select rating
Please do not post tabs as comments. Select "correction" instead!