Oops, an error
Loading. Please wait.

Tonight We Feel Alive On A Saturday Bass Tab

1,139 views 3 this week
1 commentread comment
1 2 3 4 5
accurate
x 3
add to favorites
launch autoscroll
font size
0
reset
guitar tuner
Autoscroll
slow
fast
+/-
esc
set tempo
stop
Help us to improve Ultimate-Guitar.com Take our survey!
×
Author
BY: RAYAN ARAUJO
MY BAND: USE THE FORCE, LUKE!



TUNNING TAB: D G C F

INTRO

F|-------------------------------------------------------------------|
C|-------------------------------------------------------------------|
G|-22222222-55555555-------------55555555-------------5555-----------|
D|------------------3333-55555555--------5555-33333333----5555-7\----| 2X


VERSE 1

F|----------------------------------------------------|
C|----------------------------------------------------|
G|---1010-99--------------------00-1010-99--77777777--|
D|-77-------77-10101010101010-------------77----------|

F|------------------------------------------------|
C|------------------------------------------------|
G|------------------------------------------------|
D|-3333333333333333-77777777-55555555-------------|

F|------------------------------------------------|
C|------------------------------------------------|
G|------------------------------------------------|
D|-0000000000000000-3333333333333333--------------|

F|------------------------------------------------|
C|------------------------------------------------|
G|------------------------------------------------|
D|-7777777777777777-5555555555555555--------------|


PRE-CHORUS

F|-----------------------------------------------|
C|-----------------------------------------------|
G|-----------------------------------------------|
D|-3--------0-3-------00-00-03---------07~~~~~~\-|



CHORUS

F|-------------------------------------------------------------------|
C|-------------------------------------------------------------------|
G|-22222222-55555555-------------55555555-------------5555-----------|
D|------------------3333-55555555--------5555-33333333----5555-7\----| 2X


POST CHORUS

F|-------------------------------------------------------------------|
C|-------------------------------------------------------------------|
G|-22222222-55555555-------------55555555-------------5555-----------|
D|------------------3333-55555555--------5555-33333333----5555-7\----|


VERSE 2

F|"You asked, what would I stand for"--------------------------------|
C|------------------------------------"Truth is... I stand for this"-|
G|---1010-99---------------------------------------8---7----0---5----|
D|-77-------77-10101010101010-5--------------------------------------|


F|------------------------------------------------|
C|------------------------------------------------|
G|------------------------------------------------|
D|-3333333333333333-77777777-55555555-------------|

F|------------------------------------------------|
C|------------------------------------------------|
G|------------------------------------------------|
D|-0000000000000000-3333333333333333--------------|

F|------------------------------------------------|
C|------------------------------------------------|
G|------------------------------------------------|
D|-7777777777777777-5555555555555555--------------|


PRE-CHORUS

F|-----------------------------------------------|
C|-----------------------------------------------|
G|-----------------------------------------------|
D|-3--------0-3-------00-00-03---------07~~~~~~\-|




CHORUS

F|-------------------------------------------------------------------|
C|-------------------------------------------------------------------|
G|-22222222-55555555-------------55555555-------------5555-----------|
D|------------------3333-55555555--------5555-33333333----5555-7\----| 2X


BRIDGE (PART 1)  2:19 BASS AND DRUM

F|----------------------------------------------------|
C|----------------------------------------------------|
G|---1010-99--------------------00-1010-99--77777777--|
D|-77-------77-10101010101010-------------77----------|

F|----------------------------------------------------|
C|----------------------------------------------------|
G|----------------------------------------------------|
D|-3333333333333333-77777777-55555555-----------------| 2X BRIDGE (PART 1)



BRIDGE (PART 2)  2:39 "It's the only way"

F|------------------------------------|
C|------------------------------------|
G|-5555555555555555-8888888888888888--|
D|------------------------------------|


F|-------------------------------------------------------------------|
C|-------------------------------------------------------------------|
G|-10101010101010101010101010101010-12121212121212121212121212121212-|
D|-------------------------------------------------------------------|  2X BRIDGE (PART 2)


PRE-CHORUS

F|-----------------------------------------------|
C|-----------------------------------------------|
G|-----------------------------------------------|
D|-3--------0-3-------00-00-03---------07~~~~~~\-|


CHORUS

F|-------------------------------------------------------------------|
C|-------------------------------------------------------------------|
G|-22222222-55555555-------------55555555-------------5555-----------|
D|------------------3333-55555555--------5555-33333333----5555-7\----| 2X


END (POST CHORUS)


F|-------------------------------------------------------------------|
C|-------------------------------------------------------------------|
G|-22222222-55555555-------------55555555-------------5555-----------|
D|------------------3333-55555555--------5555-33333333----5555-7\----|
Suggest correction
What's this?
You can suggest a correction to this tab. Community and Mods will review your correction and vote to approve or reject it.
comments
We did not receive enough feedback on this tab! Please rate:
print report bad tab
1 2 3 4 5
1 comment total.
0 reply
ThePurpleWoodsm 83 wrote on June 15 2013, 07:24 pm

this is wrong

guest
You may want to rate the tab now too:
select rating
Please do not post tabs as comments. Select "correction" instead!