Oops, an error
Loading. Please wait.

Alligator bass

991 views 1 this week
1 commentread comment
1 2 3 4 5
1 last vote to show rating
add to favorites
×
Save as Personal and add changes to this tab that will be seen only by you. Learn more ›
×
You can save this tab as Personal to edit and correct it or add notes. All changes will be seen only by you. Learn more »
launch autoscroll
font size
0
reset
guitar tuner
edit
Autoscroll
slow
fast
+/-
esc
set tempo
stop
Author
Difficulty
This is a really awesome song. Its pretty simple though... 
Hope you enjoy!

Intro\Verse
G|------------|
D|------------|x10
A|------------| 
E|-2\4-4--2\4-|

PreChorus
G|------------|
D|------------|x3
A|------------|
E|-4\6-6--4\6-|

Transition
G|------------|
D|------------|
A|------------|
E|-4\6666666--|

Chorus
G|------------|
D|------------|x7
A|-4\6-6--4\6-|
E|------------|

Bridge/PostChorus
G|--------------------------|
D|--------------------------|
A|--------4-4-4--------4-4-4|
E|-4~-----------4~----------|

Verse 2
G|------------|
D|------------|x8
A|------------|
E|-2/4-4--2/4-|

PreChorus
G|------------|
D|------------|x3
A|------------|
E|-4\6-6--4\6-|

Transition
G|------------|
D|------------|
A|------------|
E|-4\6666666--|

Chorus
G|------------|
D|------------|x7
A|-4\6-6--4\6-|
E|------------|

Bridge/PostChorus
G|--------------|
D|--------------|x4
A|--------4-4-4-|
E|-4~-----------|

Guitar Solo
G|------------|
D|------------|x8
A|------------|
E|-2/4-4--2/4-|

PreChorus
G|------------|
D|------------|x3
A|------------|
E|-4\6-6--4\6-|

Transition
G|------------|
D|------------|
A|------------|
E|-4\6666666--|

Chorus
G|------------|
D|------------|x7
A|-4\6-6--4\6-|
E|------------|

Ending
G|-----------------------|
D|-----------------------|
A|-----------------------|
E|-6x-6x-6x-6~6~------6\-|

This is my first post so im sorry if its not great.
Just lemme know how I did!


| /  slide up
| \  slide down
| h  hammer-on
| p  pull-off
| ~  vibrato
| +  harmonic
| x  Mute note

            
            
Suggest correction
Creating personal tab
Creating personal tab
You can edit any tab online and save it as your Personal.

You can edit, replace or remove any tab part or add personal notes – all changes will be seen only by you.

Personal tabs can be accessed anytime from any device, even offline.
Learn more »
Give kudos to tab author, rate the tab!
1 2 3 4 5
comments
print report bad tab
1 comment total.
0 reply
Shanimal 10 Dec 25, 2009 02:30 PM

hey devo! i'd like to mention that just cause your good don't mean ur cousin is!"pretty simple" my butt!:D

guest
You may want to rate the tab now too:
select rating
Wanna post a correction for this tab? Suggest correction