Oops, an error
Loading. Please wait.

Highway 1 bass

494 views 3 this week
no commentswrite comment
1 2 3 4 5
2 more votes to show rating
add to favorites
×
Save as Personal and add changes to this tab that will be seen only by you. Learn more ›
×
You can save this tab as Personal to edit and correct it or add notes. All changes will be seen only by you. Learn more »
launch autoscroll
font size
0
reset
guitar tuner
edit
Autoscroll
slow
fast
+/-
esc
set tempo
stop
artist:foxboro hot tubs
album:stop,drop and roll[EP]
song:highway 1


tuning:standard

legend:

        \\ - slide to nowhere (down)
        x  - scratch

Verse:

G|----------------------------------|
D|----------------------------------|
A|-----5--7-------------------------| (4x)
E|--7-------5--7--------------------|


Chorus:

G|------------------------------------------------------------------|
D|------------------------------------------------------------------|
A|--77x-5-7---77x-5-7---77x-5-7---77x-5-----------------------------|
E|---------------------------------------77x-5-77777---77x-5-77777--|

then...

G|------------------------------------------------------------------|
D|---------------------------------------4444444--555555--777777----|
A|--77x-5-7---77x-5-7---77x-5-7---77x-5-----------------------------|
E|------------------------------------------------------------------|

repeat verse
repeat chorus


Bridge:

G|----------------------------------|
D|----------------------------------|
A|-----5--7-------------------------| (4x)
E|--7-------5--7--------------------|


repeat verse
repeat chorus


Outro:

G|----------------------------------|
D|----------------------------------|
A|-----5--7-------------------------| (4x)
E|--7-------5--7\\------------------|

_____________________________________________________________________________

okay!this is it!mike dirnt rules here!i tabbed this out and this is also the
same thing i'm using for my guitar...the tab somewhere here is not that 
accurate!haha,just kidding!XD this is 99% sure!don't you worry...[dr+pd++d]
_____________________________________________________________________________

green day rocks!(21st century breakdown)
LONG LIVE EARTH!XD

            
            
Suggest correction
Creating personal tab
Creating personal tab
You can edit any tab online and save it as your Personal.

You can edit, replace or remove any tab part or add personal notes – all changes will be seen only by you.

Personal tabs can be accessed anytime from any device, even offline.
Learn more »
Give kudos to tab author, rate the tab!
1 2 3 4 5
comments
print report bad tab
guest
You may want to rate the tab now too:
select rating
Wanna post a correction for this tab? Suggest correction